Oops, an error
Loading. Please wait.

Biko Tab

version 1
version 1

Whole song

Interactive

25,489 views 15 this week
8 commentsread comments
1 2 3 4 5
x 16
add to favorites
launch autoscroll
font size
0
reset
how to read this tab
guitar tuner
×
Best way to learn
"Biko"
Autoscroll
slow
fast
+/-
esc
set tempo
stop
Beuatiful song off a great album. One of my fav's.

Simple riff repeats the whole way through all the notes are 8ths of a bar.

      Am                         C                        x3  F                      
E||---------------------------|---------------------------||--------------------------|
B||---------5--------5-----5--|--------5--------5-----5---||--------6--------6-----6--|
G||*-----5--------5-----------|-----5--------5-----------*||-----5--------5-----------|
D||*--7--------7--------7-----|--5--------5--------5-----*||--------------------------|
A||---------------------------|---------------------------||--8--------8--------8-----|
E||---------------------------|---------------------------||--------------------------|

    C/F
--------------------------||
--------5--------5-----5--||
-----5--------5-----------||
--------------------------||
--8--------8--------8-----||
--------------------------||


Sounds correct enough to me when i play along. For any interested the bass is really 
three notes are used, A, F and C, predominantly just the A+F's are used
Suggest correction
comments
print report bad tab
8 comments total. Showing first comments.
+5 reply
UnsignedRecords 767 Sep 04, 2008 04:32 PM

it's good, pretty simple and straightforward.

i would just change the F on the A string to the F on the D string.
|--------------------------|--------------------------||
|--------6--------6-----6--|--------5--------5-----5--||
|-----5--------5-----------|-----5--------5-----------||
|--3--------3--------3-----|--3--------3--------3-----||
|--------------------------|--------------------------||
|--------------------------|--------------------------||

+4 reply
phaze08 10 Sep 06, 2008 04:17 AM

Nice tab, ive been playing with a capo on 5 because im lazy but thanks for this. I love this song.

+6 reply
Antisback 144 Sep 13, 2008 09:14 AM

i'm using the same notes because the song will always have the same notes... i can assure you i tabbed it by ear in 30 seconds, would've taken longer to "steal it"

guest
You may want to rate the tab now too:
select rating
Wanna post a correction for this tab? Suggest correction