Oops, an error
Loading. Please wait.

Biko Tab

version 2
version 2

Whole song

Interactive

1,302 views 1 this week
3 commentsread comments
1 2 3 4 5
x 3
add to favorites
launch autoscroll
font size
0
reset
how to read this tab
guitar tuner
Autoscroll
slow
fast
+/-
esc
set tempo
stop
Help us to improve Ultimate-Guitar.com Take our survey!
×
Author
Biko is the 4th track from Silent Alarm. Its pretty much the same.
                      
E||-------------------------------------------------------------------------------|
B||------1--5---------1--5----------5--------5------1--5---1--5-----5-------------|
G||--2-------------2----------2--1--------2------0-------0-------0----------------|
D||-------------------------------------------------------------------------------|
A||-------------------------------------------------------------------------------|
E||-------------------------------------------------------------------------------|


|---------------------------------------------||
|------1--5-------1---5-----1---5---------5---||
|---------------------------------------------||
|----3---------3---------3------------3-------|| And then it repeats. I think 
|---------------------------------------------|| it varies at one point, 
|---------------------------------------------|| lowering a string.
Suggest correction
Give kudos to tab author, rate the tab!
1 2 3 4 5
comments
print report bad tab
3 comments total.
0 reply
seifer_alamasy 594 Jun 12, 2009 10:49 AM

It's Intimacy not Silent Alarm, and why play a E note on the B string when it's easier to play an open E on the e string?

0 reply
marbig 30 Jun 16, 2009 04:56 AM

Wrong album, difficult way to play it, there's a perfectly good tab already up, bits are missing and it's just plain wrong. Sorry.

0 reply
brian molko 199 Jul 19, 2009 08:58 AM

I feel 1star is a little harsh. Decent effort - average tab. Agree with 1st comment play on open E. Also 3rd change should go to 6th fret... or 1st on E. and you missed out the fourth change.
1st line is ok. the next should go like this.......

3rd -----1- 4th -----0-
---1--- ---1---
------- -------
-3----- -3-----

guest
You may want to rate the tab now too:
select rating
Wanna post a correction for this tab? Suggest correction