Oops, an error
Loading. Please wait.

Biko Tab

version 3
version 3

Whole song

Interactive

931 views 1 this week
no commentswrite comment
1 2 3 4 5
2 more votes to show rating
add to favorites
launch autoscroll
font size
0
reset
how to read this tab
guitar tuner
Autoscroll
slow
fast
+/-
esc
set tempo
stop
Help us to improve Ultimate-Guitar.com Take our survey!
×
Author
Difficulty
Capo
novice
3rd fret
                       Biko- Bloc Party

Email:

Tuning:Standard Capo on the 3rd fret ( notes relative to capo)

e|----------------------------------------------------------------------------|
B|----------2-------------2---------------2---------2-------------------------|
G|-------2-------------2---------------2--------------------------------------|
D|----4--------------4--------------4------------4----------------------------|
A|----------------------------------------------------------------------------|
E|----------------------------------------------------------------------------|

e|----------------------------------------------------------------------------|
B|----------2-------------2---------------2---------2-------------------------|
G|-------2-------------2---------------2--------------------------------------|
D|----2--------------2--------------2------------2----------------------------|
A|----------------------------------------------------------------------------|
E|----------------------------------------------------------------------------|

Repeat that 4 times then do riff below once

e|----------------------------------------------------------------------------|
B|----------3-------------3---------------3---------3-------------------------|
G|-------2-------------2---------------2--------------------------------------|
D|----4--------------4--------------4------------4----------------------------|
A|----------------------------------------------------------------------------|
E|----------------------------------------------------------------------------|

e|----------------------------------------------------------------------------|
B|----------2-------------2---------------2---------2-------------------------|
G|-------2-------------2---------------2--------------------------------------|
D|----0--------------0--------------0------------0----------------------------|
A|----------------------------------------------------------------------------|
E|----------------------------------------------------------------------------|

Thats the Whole song it repeats the whole way through rate it even if u hate it

| /  slide up
| \  slide down
| h  hammer-on
| p  pull-off
| ~  vibrato
| +  harmonic
| x  Mute note
===============================================================================
Suggest correction
Give kudos to tab author, rate the tab!
1 2 3 4 5
comments
print report bad tab
guest
You may want to rate the tab now too:
select rating
Wanna post a correction for this tab? Suggest correction