Oops, an error
Loading. Please wait.

Blue Light Bass Tab

version 3
version 3

Whole song

Interactive

1,534 views 1 this week
no commentswrite comment
1 2 3 4 5
please rate
add to favorites
launch autoscroll
font size
0
reset
guitar tuner
Tab Pro tools
  • play this tab
  • loop segment
  • change instrument
  • show fretboard
  • metronome
×
Best way to learn
"Blue Light"
Autoscroll
slow
fast
+/-
esc
set tempo
stop
Contributor
Tabbed By : jaronthebassist

                                Blue Light                                 


                                                                 Bloc Party
Bass



       W                    W                   W                 
G||---16----------------|--11----------------|--7----------------|
D||*--17----------------|--12----------------|--9----------------|
A||*--------------------|--------------------|-------------------|
E||---------------------|--------------------|-------------------|


   W                 6x    H.           E   E      W                 
--14-----------------||--------------------12--|--11----------------|
--12----------------*||*-----------------------|--------------------|
--------------------*||*--10------------L------|--------------------|
---------------------||------------------------|--------------------|


  H.           E   E      H         H         4x    W                 
------------------12--|--11--------14---------||---16----------------|
--9------------L------|----------------------*||*--17----------------|
----------------------|----------------------*||*--------------------|
----------------------|-----------------------||---------------------|


   W                   W                    W                 4x
--11----------------|--7----------------|--14-----------------||
--12----------------|--9----------------|--12----------------*||
--------------------|-------------------|--------------------*||
--------------------|-------------------|---------------------||


    H.           E   E      W                   H.           E   E   
--------------------12--|--11----------------|------------------12--|
*-----------------------|--------------------|--9------------L------|
*--10------------L------|--------------------|----------------------|
------------------------|--------------------|----------------------|


   H         H         4x  E  E  E  E  E  E  E  E   
--11--------14---------||--------------------------|
----------------------*||--------------------------|
----------------------*||--------------------------|
-----------------------||--3--3--3--3--3--3--3--3--|


  E  E  E  E  E  E  E  E     E  E  E  E  E  E  E  E   
--------------------------|--------------------------|
--------------------------|--------------------------|
--------------------------|--------------------------|
--5--5--5--5--5--5--5--5--|--3--3--3--3--3--3--3--3--|


  E  E  E  E  E  E  E  E     E  E  E  E  E  E  E  E   
--------------------------|--------------------------|
--------------------------|--------------------------|
--------------------------|--------------------------|
--7--7--7--7--7--7--7--7--|--3--3--3--3--3--3--3--3--|


  E  E  E  E  E  E  E  E     E  E  E  E  E  E  E  E   
--------------------------|--------------------------|
--------------------------|--------------------------|
--------------------------|--------------------------|
--5--5--5--5--5--5--5--5--|--0--0--0--0--0--0--0--0--|


  E  E  E  E  E  E  E  E        Q.      Q.      Q     
--------------------------||-------------------------|
--------------------------||*------------------------|
--------------------------||*--10--------------10----|
--7--7--7--7--7--7--7--7--||-----------10------------|


   Q.      Q.      E   E      Q.      Q.     E   E   
--------------------------|-------------------------|
--------------------------|-------------------------|
--12--------------10--12--|--14--------------9--10--|
----------10--------------|----------10-------------|


  Q.      Q.      Q           E  E   E   E  E   E  E   E   
------------------------||--------------------------------|
-----------------------*||*-------------------------------|
--9--------------------*||*--10--9------10--9------9--10--|
---------10------12-----||----------10---------10---------|


   E   E   E   E   E   E   E   E      Q.      E  H         
----------------------------------|-----------------------|
----------------------------------|-----------------------|
--12--10------12--10------10--12--|--14------10--L--------|
----------10----------10----------|-----------------------|


  E   E  E   Q.      Q        E  E   E   E  E   E  E   E   
--------------------------|-------------------------------|
--------------------------|-------------------------------|
--9--10--9----------------|--10--9------10--9------9--10--|
------------12------10----|---------10---------10---------|


   E   E   E   E   E   E   E   E      Q.      Q.      Q     
----------------------------------|------------------------|
----------------------------------|------------------------|
--12--10------12--10------10--12--|--14------12------14----|
----------10----------10----------|------------------------|


   H         H              H.           E   E      W                 
----------------------||--------------------12--|--11----------------|
--12--------14--------||*-----------------------|--------------------|
----------------------||*--10------------L------|--------------------|
----------------------||------------------------|--------------------|


  H.           E   E      H         H         3x   H.           E   E   
------------------12--|--11--------14---------||-------------------12--|
--9------------L------|----------------------*||-----------------------|
----------------------|----------------------*||--10------------L------|
----------------------|-----------------------||-----------------------|


   W                  
--11----------------||
--------------------||
--------------------||
--------------------||




Duration Legend
---------------
W - whole
H - half
Q - quarter
E - 8th
S - 16th
T - 32nd
X - 64th
. - note dotted
|-n-|  - n-tuplets


Tablature Legend
----------------
L - tied note
x - dead note
g - grace note
(n) - ghost note
> - accentuded note
NH - natural harmonic
AH - artificial harmonic
TH - tapped harmonic
SH - semi harmonic
PH - pitch harmonic
h - hammer on
p - pull off
b - bend
br - bendRelease
pb - preBend
pbr - preBendRelease
brb - bendReleaseBend
\n/ - tremolo bar dip
\n - tremolo bar dive
-/n - tremolo bar Release up
/n\ - tremolo bar inverted dip
/n - tremolo bar return
-\n - tremolo bar Release down
S - shift slide
s - legato slide
/ -  slide into from below or out of upwards
\ -  slide into from above or out of downwards
~ - vibrato
W - wide vibrato
tr - trill
TP - tremolo picking
T - tapping
S - slap
P - pop
< - fade in
^ - brush up
v - brush down
comments
We did not receive enough feedback on this tab! Please rate:
print report bad tab
1 2 3 4 5
I want to post or [tab]
guest
You may want to rate the tab now too:
select rating
Please do not post tabs as comments. Select "correction" instead!