Oops, an error
Loading. Please wait.

Cain Said To Abel Bass Tab

version 1
version 1

Whole song

Interactive

181 views 1 this week
no commentswrite comment
1 2 3 4 5
3 more votes to show rating
add to favorites
launch autoscroll
font size
0
reset
guitar tuner
Autoscroll
slow
fast
+/-
esc
set tempo
stop
Help us to improve Ultimate-Guitar.com Take our survey!
×
Author
Difficulty
(0:08) x2
G|--|------------------------------------|-------------------------|
D|--|------------------------------------|-------------------------|
A|--|---------------------------------10-|12-0-0-0-0-0-0-0-0-0-0---|
E|8-|10-10-10-10-10-10-10-10-10-10-10----|-----------------------8-|

G|-----------------------------------|----------------------------------|
D|---------------------------------7-|9---------------------------------|
A|-----------------------------------|--10-10-10-10-10-10-10-10-10-10---|
E|10-10-10-10-10-10-10-10-10-10-10---|--------------------------------8-|



(0:24) x4
G|------------------------------------|-------------------------|
D|------------------------------------|-------------------------|
A|---------------------------------10-|12-0-0-0-0-0-0-0-0-0-0---|
E|10-10-10-10-10-10-10-10-10-10-10----|-----------------------8-|

G|-----------------------------------|----------------------------------|
D|---------------------------------7-|9---------------------------------|
A|-----------------------------------|--10-10-10-10-10-10-10-10-10-10---|
E|10-10-10-10-10-10-10-10-10-10-10---|--------------------------------8-|
                                      Last time, stay on 10 instead of 8.



(0:56) x2
G|------------------------|------------------------|
D|------------------------|------------------------|
A|8-8-8-8-8-8-8-8-8-8-8-8-|0-0-0-0-0-0-0-0-0-0-0-0-|
E|------------------------|------------------------|

G|------------------------|------------------------|
D|------------------------|------------------------|
A|8-8-8-8-8-8-8-8-8-8-8-8\|2-2-2-2/3-3-3-3/5-5-5-5/|
E|------------------------|------------------------|



(1:12) x2
G|------------------------------------|-------------------------|
D|------------------------------------|-------------------------|
A|---------------------------------10-|12-0-0-0-0-0-0-0-0-0-0---|
E|10-10-10-10-10-10-10-10-10-10-10----|-----------------------8-|

G|-----------------------------------|----------------------------------|
D|---------------------------------7-|9---------------------------------|
A|-----------------------------------|--10-10-10-10-10-10-10-10-10-10---|
E|10-10-10-10-10-10-10-10-10-10-10---|--------------------------------8-|



(1:28) x2
G|------------------------------------|-------------------------|
D|------------------------------------|-------------------------|
A|---------------------------------10-|12-0-0-0-0-0-0-0-0-0-0---|
E|10-10-10-10-10-10-10-10-10-10-10----|-----------------------8-|

G|-----------------------------------|----------------------------------|
D|---------------------------------7-|9---------------------------------|
A|-----------------------------------|--10-10-10-10-10-10-10-10-10-10---|
E|10-10-10-10-10-10-10-10-10-10-10---|--------------------------------8-|



(1:44) x2
G|------------------------|------------------------|
D|------------------------|------------------------|
A|8-8-8-8-8-8-8-8-8-8-8-8-|0-0-0-0-0-0-0-0-0-0-0-0-|
E|------------------------|------------------------|

G|------------------------|------------------------|
D|------------------------|------------------------|
A|8-8-8-8-8-8-8-8-8-8-8-8\|2-2-2-2/3-3-3-3/5-5-5-5/|
E|------------------------|------------------------|



(2:00) x2
G|------------------------|------------------------|
D|------------------------|------------------------|
A|8-8-8-8-8-8-8-8-8-8-8-8-|0-0-0-0-0-0-0-0-0-0-0-0-|
E|------------------------|------------------------|

G|------------------------|------------------------|
D|------------------------|------------------------|
A|8-8-8-8-8-8-8-8-8-8-8-8\|2-2-2-2/3-3-3-3/5-5-5-5/|
E|------------------------|------------------------|



(2:16) x4
G|------------------------|------------------------|
D|------------------------|------------------------|
A|8~----------------------|10~---------------------|
E|------------------------|------------------------|

G|------------------------|------------------------|
D|------------------------|------------------------|
A|8~----------------------|12\-----5/------7/------|
E|------------------------|------------------------|



(2:48) x2
G|------------------------|------------------------------------|
D|------------------------|------------------------------------|
A|8-8-8-8-8-8-8-8-8-8-8-8-|10-10-10-10-10-10-10-10-10-10-10-10-|
E|------------------------|------------------------------------|

G|------------------------|----------------------------|
D|------------------------|----------------------------|
A|8-8-8-8-8-8-8-8-8-8-8-8-|12-12-12-12\5-5-5-5/7-7-7-7/|
E|------------------------|----------------------------|



(3:04) x2
G|------------------------|------------------------|
D|------------------------|------------------------|
A|8-8-8-8-8-8-8-8-8-8-8-8-|0-0-0-0-0-0-0-0-0-0-0-0-|
E|------------------------|------------------------|

G|------------------------|------------------------|
D|------------------------|------------------------|
A|8-8-8-8-8-8-8-8-8-8-8-8\|2-2-2-2/3-3-3-3/5-5-5-5/|
E|------------------------|------------------------|
Suggest correction
Give kudos to tab author, rate the tab!
1 2 3 4 5
comments
print report bad tab
guest
You may want to rate the tab now too:
select rating
Wanna post a correction for this tab? Suggest correction