Oops, an error
Loading. Please wait.

Cain Said To Abel Tab

version 1
version 1

Whole song

Interactive

4,217 views 3 this week
4 commentsread comments
1 2 3 4 5
excellent!
x 5
add to favorites
launch autoscroll
font size
0
reset
how to read this tab
guitar tuner
Autoscroll
slow
fast
+/-
esc
set tempo
stop
Help us to improve Ultimate-Guitar.com Take our survey!
×
Author
----------------------------------------------------------------------------
                             Cain Said To Abel - Bloc Party
----------------------------------------------------------------------------

Tabbed by: Radiall
Email: orrinsf@msn.com

Tuning: Standard

Not 100 % sure about the latter part of the solo and the arrangement for the verses. I 
put it as one guitar, since it is also playing the same riff in the intro, but it might 
two guitars playing it. Any comments are welcome.

UPDATE 3/28/07:
I updated Guitar 1 in the verses. Thanks goes to The_alchemist for pointing out my mistake.


Intro
Guitar 1
e|--------------------------------------------------------------------|
B|--------------------------------------------------------------------|
G|-------5-5-----5-5-----5-5-----5-5------7-5-----7-5-----------------| x6
D|---3-3-------------2-2----------------------------------------------|
A|-----------5-5-------------2-2-----3-3------5-5---------------------|
E|--------------------------------------------------------------------|

Guitar 2
e|--------------------------------------------------------------------|
B|--------------------------------------------------------------------|
G|--------9-10-12----------9----------9-10-9--5-/-7--12-10------------| x3
D|------------------10-12------10-12----------------------------------|
A|--------------------------------------------------------------------|
E|--------------------------------------------------------------------|


Verse 1
Guitar 1
e|--------------------------------------------------------------------|
B|--------------------------------------------------------------------|
G|-------5-5-----5-5-----5-5-----5-5------7-5-----7-5-----------------| x8
D|---3-3-------------2-2----------------------------------------------|
A|-----------5-5-------------2-2-----3-3------5-5---------------------|
E|--------------------------------------------------------------------|


Chorus
Guitar 1
e|-------------------------------------------------------------------------|
B|-------------------------------------------------------------------------|
G|--------12-12-------9-9-------10-10-------12-12-------9-9-------12-12----|
D|--10-10-------10-10-----10-10-------10-10-------10-10-----10-10----------|
A|-------------------------------------------------------------------------|
E|-------------------------------------------------------------------------|

e|-------------------------------------------------------------------------|
B|------------------------------------------------------12-12--------------|
G|--------12-12-------9-9-------10-10-------12-12-------------------12-12--|
D|--10-10-------10-10-----10-10-------10-10-------10-10-------10-10--------|
A|-------------------------------------------------------------------------|
E|-------------------------------------------------------------------------|

e|-------------------------------------------------------------------------|
B|-------------------------------------------------------------------------|
G|--------12-12-------9-9-------10-10-------12-12-------9-9-------12-12----|
D|--10-10-------10-10-----10-10-------10-10-------10-10-----10-10----------|
A|-------------------------------------------------------------------------|
E|-------------------------------------------------------------------------|

e|-------------------------------------------------------------------------|
B|------------------------------------------------------12-12--------------|
G|--------12-12-------9-9-------10-10-------12-12-------------------12-----|
D|--10-10-------10-10-----10-10-------10-10-------10-10-------10-10--------|
A|-------------------------------------------------------------------------|
E|-------------------------------------------------------------------------|

Intro (Again)
Guitar 1
e|--------------------------------------------------------------------|
B|--------------------------------------------------------------------|
G|-------5-5-----5-5-----5-5-----5-5------7-5-----7-5-----------------| x4
D|---3-3-------------2-2----------------------------------------------|
A|-----------5-5-------------2-2-----3-3------5-5---------------------|
E|--------------------------------------------------------------------|

Guitar 2
e|--------------------------------------------------------------------|
B|--------------------------------------------------------------------|
G|--------9-10-12----------9----------9-10-9--5-/-7--12-10------------| x2
D|------------------10-12------10-12----------------------------------|
A|--------------------------------------------------------------------|
E|--------------------------------------------------------------------|


Verse 2
Guitar 1
e|--------------------------------------------------------------------|
B|--------------------------------------------------------------------|
G|-------5-5-----5-5-----5-5-----5-5------7-5-----7-5-----------------| x4
D|---3-3-------------2-2----------------------------------------------|
A|-----------5-5-------------2-2-----3-3------5-5---------------------|
E|--------------------------------------------------------------------|


Chorus
Guitar 1
e|-------------------------------------------------------------------------|
B|-------------------------------------------------------------------------|
G|--------12-12-------9-9-------10-10-------12-12-------9-9-------12-12----|
D|--10-10-------10-10-----10-10-------10-10-------10-10-----10-10----------|
A|-------------------------------------------------------------------------|
E|-------------------------------------------------------------------------|

e|-------------------------------------------------------------------------|
B|------------------------------------------------------12-12--------------|
G|--------12-12-------9-9-------10-10-------12-12-------------------12-12--|
D|--10-10-------10-10-----10-10-------10-10-------10-10-------10-10--------|
A|-------------------------------------------------------------------------|
E|-------------------------------------------------------------------------|

e|-------------------------------------------------------------------------|
B|-------------------------------------------------------------------------|
G|--------12-12-------9-9-------10-10-------12-12-------9-9-------12-12----|
D|--10-10-------10-10-----10-10-------10-10-------10-10-----10-10----------|
A|-------------------------------------------------------------------------|
E|-------------------------------------------------------------------------|

e|-------------------------------------------------------------------------|
B|------------------------------------------------------12-12--------------|
G|--------12-12-------9-9-------10-10-------12-12-------------------12-----|
D|--10-10-------10-10-----10-10-------10-10-------10-10-------10-10--------|
A|-------------------------------------------------------------------------|
E|-------------------------------------------------------------------------|


Bridge
Guitar 1 with some effects         12's not two's and one's
e|------------------------------------------------------------------------|
B|------------------------------------------------------------------------|
G|----12121212---12121212---12121212---12121212-10101010-9999-------------|
D|------------------------------------------------------------------------|
A|------------------------------------------------------------------------|
E|------------------------------------------------------------------------|

e|------------------------------------------------------------------------|
B|------------------------------------------------------------------------|
G|----12121212--14-12-12---12121212-10-12-12---12121212--14-12-12---------|
D|------------------------------------------------------------------------|
A|------------------------------------------------------------------------|
E|------------------------------------------------------------------------|

e|------------------------------------------------------------------------|
B|------------------------------------------------------------------------|
G|----12121212--12121010--101099------------------------------------------|
D|--------------------------------10--------------------------------------|
A|------------------------------------------------------------------------|
E|------------------------------------------------------------------------|

e|----------------------------------------------------------------------|
B|----------------------------------------------------------------------|
G|----12-14-12-12--12-10-12-12--12-14-12-12--12-10-9--------------------|
D|---------------------------------------------------10-----------------|
A|----------------------------------------------------------------------|
E|----------------------------------------------------------------------|

e|----------------------------------------------------------------------|
B|----------------------------------------------------------------------|
G|----12-14-12-12--12-10-12-12--12-14-12-12--12-10-9--------------------|
D|---------------------------------------------------10-----------------|
A|----------------------------------------------------------------------|
E|----------------------------------------------------------------------|

e|----------------------------------------------13-12-------------------|
B|----13-12-13-13--13-15-13-13--13-12-13-13--13-------13----------------|
G|----------------------------------------------------------------------|
D|----------------------------------------------------------------------|
A|----------------------------------------------------------------------|
E|----------------------------------------------------------------------|

e|----------------------------------------------13-12-------------------|
B|----13-12-13-13--13-15-13-13--13-12-13-13--13-------13----------------|
G|----------------------------------------------------------------------|
D|----------------------------------------------------------------------|
A|----------------------------------------------------------------------|
E|----------------------------------------------------------------------|

Solo
Guitar 1
e|-------------------------------------------------------------|
B|-----------------------------------13-12--12-12--------------|
G|--------9-9-9-9-10-10-10-10--12-12---------------------------|
D|-------------------------------------------------------------|
A|-------------------------------------------------------------|
E|-------------------------------------------------------------|
                                                                   } x 2
e|--------------------------------------12-12------------------|
B|--------12-12-13-13-12-12-15-15-12-12------------------------|
G|-------------------------------------------------------------|
D|-------------------------------------------------------------|
A|-------------------------------------------------------------|
E|-------------------------------------------------------------|

Outro Chorus
Guitar 1
e|-------15-15------12-12------13-13------15-15------12-12------15-15--|
B|--13-13------13-13------13-13------13-13------13-13------13-13-------|
G|---------------------------------------------------------------------| x4
D|---------------------------------------------------------------------|
A|---------------------------------------------------------------------|
E|---------------------------------------------------------------------|

e|------------------------------------|
B|------------------------------------|
G|-------12-12-12-12------------------|
D|------------------------------------|
A|------------------------------------|
E|------------------------------------|


| /  slide up
| \  slide down
| h  hammer-on
| p  pull-off
| ~  vibrato
| +  harmonic
| x  Mute note
============================================================================
Suggest correction
What's this?
You can suggest a correction to this tab. Community and Mods will review your correction and vote to approve or reject it.
comments
print report bad tab
4 comments total. Showing first comments.
0 reply
Teh_Zombie 176 wrote on March 25 2007, 02:58 pm

Absolutely perfect, sounds spot-on through the whole thing!

0 reply
The_alchemist 145 wrote on March 28 2007, 01:20 pm


e|--------------------------------------------------------------------|
B|--------------------------------------------------------------------|
G|-------5-5-----5-5-----5-5-----5-5------7-5-----7-5-----------------|
D|---3-3-------------1-1----------------------------------------------|
A|-----------5-5-------------1-1-----3-3------5-5---------------------|
E|--------------------------------------------------------------------

according to me it is:
e|--------------------------------------------------------------------|
B|--------------------------------------------------------------------|
G|-------5-5-----5-5-----5-5-----5-5------7-5-----7-5-----------------|
D|---3-3-------------2-2----------------------------------------------|
A|-----------5-5-------------2-2-----3-3------5-5---------------------|
E|--------------------------------------------------------------------

furthermore great tab

0 reply
Radiall 234 wrote on March 28 2007, 06:18 pm

Thanks for the tip, I think that's what I might have meant to put, I'll check it when I get home and can grab my guitar to check. I'll update it and give you credit if I messed up.

guest
You may want to rate the tab now too:
select rating
Please do not post tabs as comments. Select "correction" instead!