Oops, an error
Loading. Please wait.

Coliseum Bass Tab

version 1
version 1

Whole song

Interactive

314 views 1 this week
no commentswrite comment
1 2 3 4 5
please rate
add to favorites
launch autoscroll
font size
0
reset
guitar tuner
Tab Pro tools
  • play this tab
  • loop segment
  • change instrument
  • show fretboard
  • metronome
×
Best way to learn
"Coliseum"
Autoscroll
slow
fast
+/-
esc
set tempo
stop
Contributor
Difficulty
Tuning
novice
D A D G B E
-------------------------------------------------------------------------------
                             Coliseum - Bloc Party
-------------------------------------------------------------------------------
Tabbed by: BassistBentley

Tuning: Drop D

acoustic intro……

verse
G|--------------------------------|-------------------------------|
D|--------------------------------|-------------------------------|
A|--------------------------------|-------------------------------|
D|---0-3-0-6-5-2-3--0-3-0-6-5-2-3-|---0-3-0-6-5-2-3--0-3-0-6-6-0--|

G|--------------------------------|--------------------------------|
D|--------------------------------|--------------------------------|
A|--------------------------------|--------------------------------|
D|---0-3-0-6-5-2-3--0-3-0-6-5-2-3-|---0-3-0-6-5-2-3-6-5-2-3-6-6-0--|

G|--------------------------------|-------------------------------|
D|--------------------------------|-------------------------------|
A|--------------------------------|-------------------------------|
D|---0-3-0-6-5-2-3--0-3-0-6-5-2-3-|---0-3-0-6-5-2-3--0-3-0-6-6-0--|

G|--------------------------------|--------------------------------|
D|--------------------------------|--------------------------------|
A|--------------------------------|--------------------------------|
D|-0-3-0-3-6-5-2-3--0-3-0-6-5-2-3-|---0-3-0-6-5-2-3-6-5-2-3-6-6-0--|

chorus
G|-------------------------------------|-----------------------------------|
D|-------------------------------------|-----------------------------------|
A|--5-5-5-5-5-5-5-5-5-5-5-5-5-5-5-5-5--|--1-1-1-------1-1-1-----------5----|
D|-------------------------------------|--------3-3-3-------3-3-3--3-------| x2

                                                                note the time change
G|-------------------------------------|--------------------------|-------------------------|
D|-------------------------------------|--------------------------|-------------------------|
A|-------------------------------------|--1-1-1-1-1-1-------------|-1-1-1-1-1-1-------------|
D|--0-0-0-0-0-0-0-0-0-0-0-0-0-0-0-0-0--|--------------3-3-3-3-3-3-|-------------3-3-3-3-3-3-|

G|-------------------------------------|--------------------------|-------------------------|
D|-------------------------------------|--------------------------|-------------------------|
A|--5-5-5-5-5-5-5-5-5-5-5-5-5-5-5-5-5--|--1-1-1-1-1-1-------------|-1-1-1-1-1-1-------------|
D|-------------------------------------|--------------3-3-3-3-3-3-|-------------3-3-3-3-3-3-|

bridge
G|---------------|---------------|
D|---------------|---------------|
A|-1-------------|-1-------------|
D|--------3------|--------3------| x4, speeding up each time

chorus
G|--------------------------------|-------------------------------|
D|--------------------------------|-------------------------------|
A|--------------------------------|-------------------------------|
D|---0-3-0-6-5-2-3--0-3-0-6-5-2-3-|---0-3-0-6-5-2-3--0-3-0-6-6-0--|

G|--------------------------------|--------------------------------|
D|--------------------------------|--------------------------------|
A|--------------------------------|--------------------------------|
D|-0-3-0-3-6-5-2-3--0-3-0-6-5-2-3-|---0-3-0-6-5-2-3-6-5-2-3-6-6-0--|

outro (beware the 7/8)
G|------------------------|
D|------------------------|
A|-0-3-5-0-3-5-0-3-5-0-3--|
D|------------------------| x3

G|------|
D|------|
A|-5\\--|
D|------|


| /  slide up
| \  slide down
| h  hammer-on
| p  pull-off
| ~  vibrato
| +  harmonic
| x  Mute note
===============================================================================
comments
We did not receive enough feedback on this tab! Please rate:
print report bad tab
1 2 3 4 5
I want to post or [tab]
guest
You may want to rate the tab now too:
select rating
Please do not post tabs as comments. Select "correction" instead!