Oops, an error
Loading. Please wait.

Flux Chords

version 2
version 2

Acoustic

Whole song

Interactive

7,177 views 1 this week
no commentswrite comment
1 2 3 4 5
3 more votes to show rating
add to favorites
launch autoscroll
font size
0
reset
transpose
0
reset
display chords
guitar tuner
Autoscroll
slow
fast
+/-
esc
set tempo
stop
Help us to improve Ultimate-Guitar.com Take our survey!
×
Author
Difficulty
novice
Really easy chords.
-first tab-

intro:
e|----------------------------------------------------------------|
B|----------------------------------------------------------------|
G|----------------------------------------------------------------|
D|----------------------------------------------------------------|
A|--8-----3--------5--6-------------------------------------------|
E|-----------3----------------------------------------------------| x 4
        Em                        C
If your right hand is causing you pain
        G           D
Cut it off, cut it off
        Em                    C
If your colours have started to run
         G                    D
Let them all run, run away from you
        Em                C    
There is lightning in this room 
          G              D
Above our heads, waiting to strike
       Em            C
I'm a thinker not a talker
        G                    D
Put your faith, your faith in God
e|----------------------------------------------------------------|
B|----------------------------------------------------------------|
G|----------------------------------------------------------------|
D|----------------------------------------------------------------|
A|--8-----3--------5--6-------------------------------------------|
E|-----------3----------------------------------------------------| x4

We were hoping for some romance
All we found was more despair
We must talk about our problems
We are in a state of flux


  back to the chords..
  Em                        C
I'd kill for an adventure
 G               D
Just you and I, in the Curzon Bar
Em            C
Dancing till we knew
 G                     D
So all that we've learnt disappears


Em                C
When you shouted at me
 G                   D
I saw my father in the second grade
Em                  C
Concerned and kind
 G           D
Yet unable to reach me

e|----------------------------------------------------------------|
B|----------------------------------------------------------------|
G|----------------------------------------------------------------|
D|----------------------------------------------------------------|
A|--8-----3--------5--6-------------------------------------------|
E|-----------3----------------------------------------------------| x 4
We were hoping for some romance
All we found was more despair
We must talk about our problems
We are in a state of flux

State of flux (9 TIMES)
                          < you can do either chords here or the other bit (:
We need to talk (5 TIMES) 

e|----------------------------------------------------------------|
B|----------------------------------------------------------------|
G|----------------------------------------------------------------|
D|----------------------------------------------------------------|
A|--8-----3--------5--6-------------------------------------------|
E|-----------3----------------------------------------------------|
We were hoping for some romance
All we found was more despair
We must talk about our problems
We are in a state of flux

thanks.x
Suggest correction
Give kudos to tab author, rate the tab!
1 2 3 4 5
comments
print report bad tab
guest
You may want to rate the tab now too:
select rating
Wanna post a correction for this tab? Suggest correction