Oops, an error
Loading. Please wait.

Halo Bass Tab

version 2
version 2

Whole song

Interactive

697 views 1 this week
no commentswrite comment
1 2 3 4 5
3 more votes to show rating
add to favorites
launch autoscroll
font size
0
reset
guitar tuner
Autoscroll
slow
fast
+/-
esc
set tempo
stop
Help us to improve Ultimate-Guitar.com Take our survey!
×
Difficulty
intermediate
Intro

G|---------------------------------------------------------------------|
D|---------------------------------------------------------------------|
A|--77777777777--101010101010101010101010-------141414141414-1515151515|
E|---------------------------------------------------------------------|

G|-----------------------------------------------------|
D|-----------------------------------------------------|
A|--77777777777--101010101010101010101010----------2222|
E|--------------------------------------------3333-----|

Verse
G|------------|
D|------------|
A|77---333----|
E|--777---3335|

Last part of verse
G|----------------|
D|----------------|
A|----------------|
E|7777777777777777|

Chorus
G|------------------------------|
D|------------------------------|
A|-7-77--10-9--0--00--9-10------|
E|------------------------------|

G|--------------------------------------------------------------|
D|--------------------------------------------------------------|
A|7777777777777777----------------------------------------------|
E|----------------5555555555555555-777777777777777-555555555555-|

Bridge
G|-------------------------------------------------------|
D|-------------------------------------------------------|
A|7777777777777-33333333--------77777777777777--333333335|
E|----------------------33333333-------------------------|

Breakdown
This bit is the heavy part played after each little guitar riff.
G|---------------|
D|---------------|
A|---------------|
E|13-00-12-00-2-3|

Then this riff is played leading up to the other bit
G|---------------|
D|---------------|
A|14-13-------35-|
E|------14-03----|

G|--------------------------------------------------------------|
D|--------------------------------------------------------------|
A|-----2-3-2---------3-5-2----------2-3-2--------2-3-3-3-3-5-5--|
E|-0-3-------3---0-3-------3-2--0-3-------3--0-3----------------|

Thanks Bloc Party!!!
Suggest correction
Give kudos to tab author, rate the tab!
1 2 3 4 5
comments
print report bad tab
guest
You may want to rate the tab now too:
select rating
Wanna post a correction for this tab? Suggest correction