Oops, an error
Loading. Please wait.

Helicopter Bass Tab

version 2
6,302 views 1 this week
6 commentsread comments
1 2 3 4 5
accurate
x 6
add to favorites
launch autoscroll
font size
0
reset
guitar tuner
Tab Pro tools
  • play this tab
  • loop segment
  • change instrument
  • show fretboard
  • metronome
×
Best way to learn
"Helicopter"
Autoscroll
slow
fast
+/-
esc
set tempo
stop
Contributor
Difficulty
advanced
----------------------------------------------------------------------------
			     HELICOPTER - Bloc Party
----------------------------------------------------------------------------

Tabbed By : bloogy182

Tuning:Standard (E,A,D,G)

Intro (x2) play after the guitars riff 4 times.
G|------------------------------|
D|------------------------------|
A|-------------5555-7777--------|
E|---7777-7777------------------|

Verse (x4)
G|------------------------------|
D|------------------------------|
A|-------------5555-7777--------|
E|---7777-7777------------------|

Pre-Chorus (x2)                  (break)
G|----------------------------------|--------------------------------------|
D|----------------------------------|--------------------------------------|
A|----------------------------------|----------------------55555555555555--|
E|--22222222-77777777-22222222-7-7--|----22222222-77777777-----------------|

Chorus (x2)
G|-------------------------------------------------------------------------|
D|-------------------------------------------------------------------------|
A|-14-14-14-14-14-14-14-14-12-12-12-12-12-12-12-12-10-10-10-10-10-10-10-10-|
E|-------------------------------------------------------------------------|
Chorus (cont.)
G|--------------------------|
D|--------------------------|
A|-------------10-10-9-9----|
E|--10-10-9-9---------------|

Post-Chorus (x2)
G|------------------------------|
D|------------------------------|
A|-------------5555-7777--------|
E|---7777-7777------------------|


Verse (x4)
G|------------------------------|
D|------------------------------|
A|-------------5555-7777--------|
E|---7777-7777------------------|

Pre-Chorus (x2)                  (break)
G|----------------------------------|--------------------------------------|
D|----------------------------------|--------------------------------------|
A|----------------------------------|----------------------55555555555555--|
E|--22222222-77777777-22222222-7-7--|----22222222-77777777-----------------|

Chorus (x2)
G|-------------------------------------------------------------------------|
D|-------------------------------------------------------------------------|
A|-14-14-14-14-14-14-14-14-12-12-12-12-12-12-12-12-10-10-10-10-10-10-10-10-|
E|-------------------------------------------------------------------------|
Chorus (cont.)
G|--------------------------|
D|--------------------------|
A|-------------10-10-9-9----|
E|--10-10-9-9---------------|

Bridge (x1)
G|-------------------------------------------------------------------------|
D|-------------------------------------------------------------------------|
A|--14-------14------14-------14----12-12-12-12-12-12-12-12----------------|
E|-------------------------------------------------------------------------|
Bridge(cont.)(i don't think the slide at the end is played but it sounds better)
G|-------------------------------------------------------------------------|
D|-------------------------------------------------------------------------|
A|12-12-12-12-12-12-12-12-12-12-12-11-12-12-12-11-12-12-12-11-17-17-17///0-|
E|-------------------------------------------------------------------------|

Chorus (x2)
G|-------------------------------------------------------------------------|
D|-------------------------------------------------------------------------|
A|-14-14-14-14-14-14-14-14-12-12-12-12-12-12-12-12-10-10-10-10-10-10-10-10-|
E|-------------------------------------------------------------------------|
Chorus (cont.)
G|--------------------------|
D|--------------------------|
A|-------------10-10-9-9----|
E|--10-10-9-9---------------|

Outro (x1)
G|------|
D|------|
A|--14--|
E|------|

I got it wrong the 1st time and just mucked up wen i woz writing it so here is the 
version. Soz. Plz rate!
comments
print report bad tab
6 comments total. Showing first comments.
+1 reply
euan o.b.m wrote on February 11 2006, 11:42 am

awful

-1 reply
bloogy182 wrote on April 21 2006, 10:28 am

soz bout dat. it woz just a typin error! oops!:-0

-1 reply
kolindarko wrote on February 26 2007, 03:06 pm

hey yeah the tab is fine except for the brige the bass plays
G:--7-7-7-7-|
D:--9-9-9-9-|

jus listen an youll hear it
but besides that who rated this advanced ive only bin playin bass about a year and that is simple to play...
-K(night of cydonia)

I want to post or [tab]
guest
You may want to rate the tab now too:
select rating
Please do not post tabs as comments. Select "correction" instead!