Oops, an error
Loading. Please wait.

Helicopter Bass Tab

version 3
12,147 views 6 this week
1 commentread comment
1 2 3 4 5
x 6
add to favorites
launch autoscroll
font size
0
reset
guitar tuner
Autoscroll
slow
fast
+/-
esc
set tempo
stop
Help us to improve Ultimate-Guitar.com Take our survey!
×
Author
Difficulty
intermediate
This is a tab for bloc partys awesome song helicopter, this is 100% perfect, enjoy.

G|---------------------------------------------------------------------|
D|---------------------------------------------------------------------|
A|-2-2-2-2-----2-2-2-2-----5-5-5-5-----7-7-7-7-------------------------| x6
E|---------------------------------------------------------------------|

G|---------------------------------------------------------------------|
D|---------------------------------------------------------------------|
A|-----------------2-2-2-2-2-2-2-2-----------------2-2-----------------| 
E|-2-2-2-2-2-2-2-2-----------------2-2-2-2-2-2-2-2---------------------|

G|---------------------------------------------------------------------|
D|---------------------------------------------------------------------|
A|-----------------2-2-2-2-2-2-2-2-5-5-5-5-5-5-5-5-5-5-5-5-5-5-5-5-----| 
E|-2-2-2-2-2-2-2-2-----------------------------------------------------|

G|---------------------------------------------------------------------|
D|---------------------------------------------------------------------|
A|-----------------2-2-2-2-2-2-2-2-----------------2-2-----------------| 
E|-2-2-2-2-2-2-2-2-----------------2-2-2-2-2-2-2-2---------------------|

G|---------------------------------------------------------------------|
D|---------------------------------------------------------------------|
A|-----------------2-2-2-2-2-2-2-2-5-5-5-5-5-5-5-5-9-9-9-9-13-13-13-13-| 
E|-2-2-2-2-2-2-2-2-----------------------------------------------------|

G|-------------------------------------------------------------------------|
D|-------------------------------------------------------------------------|
A|-14-14-14-14-14-14-14-14-12-12-12-12-12-12-12-12-10-10-10-10-10-10-10-10- 
E|-------------------------------------------------------------------------|

G|---------------------------------------------------------------------|
D|---------------------------------------------------------------------|
A|-----------10-10-9-9-------------------------------------------------| x4
E|-10-10-9-9-----------------------------------------------------------|

G|---------------------------------------------------------------------|
D|---------------------------------------------------------------------|
A|-2-2-2-2-----2-2-2-2-----5-5-5-5-----7-7-7-7-------------------------| x6
E|---------------------------------------------------------------------|

G|---------------------------------------------------------------------|
D|---------------------------------------------------------------------|
A|-----------------2-2-2-2-2-2-2-2-----------------2-2-----------------| 
E|-2-2-2-2-2-2-2-2-----------------2-2-2-2-2-2-2-2---------------------|

G|---------------------------------------------------------------------|
D|---------------------------------------------------------------------|
A|-----------------2-2-2-2-2-2-2-2-5-5-5-5-5-5-5-5-5-5-5-5-5-5-5-5-----| 
E|-2-2-2-2-2-2-2-2-----------------------------------------------------|

G|---------------------------------------------------------------------|
D|---------------------------------------------------------------------|
A|-----------------2-2-2-2-2-2-2-2-----------------2-2-----------------| 
E|-2-2-2-2-2-2-2-2-----------------2-2-2-2-2-2-2-2---------------------|

G|---------------------------------------------------------------------|
D|---------------------------------------------------------------------|
A|-----------------2-2-2-2-2-2-2-2-5-5-5-5-5-5-5-5-9-9-9-9-13-13-13-13-| 
E|-2-2-2-2-2-2-2-2-----------------------------------------------------|

G|-------------------------------------------------------------------------|
D|-------------------------------------------------------------------------|
A|-14-14-14-14-14-14-14-14-12-12-12-12-12-12-12-12-10-10-10-10-10-10-10-10- 
E|-------------------------------------------------------------------------|

G|---------------------------------------------------------------------|
D|---------------------------------------------------------------------|
A|-----------10-10-9-9-------------------------------------------------| x4
E|-10-10-9-9-----------------------------------------------------------|

G|---------------------------------------------------------------------|
D|---------------------------------------------------------------------|
A|-14----------------14----------------14----------------14------------| 
E|---------------------------------------------------------------------|

G|---------------------------------------------------------------------|
D|---------------------------------------------------------------------|
A|-17-17-17-17-----17-17-17-17-----17-17-17-17-----17-17-17-17---------|
E|---------------------------------------------------------------------|

G|---------------------------------------------------------------------|
D|-------------------------------------------------17-17-17-16---------|
A|-17-17-17-16-----17-17-17-16-----17-17-17-16-------------------------|
E|---------------------------------------------------------------------|

G|-------------------------------------------------------------------------|
D|-------------------------------------------------------------------------|
A|-14-14-14-14-14-14-14-14-12-12-12-12-12-12-12-12-10-10-10-10-10-10-10-10- 
E|-------------------------------------------------------------------------|

G|---------------------------------------------------------------------|
D|---------------------------------------------------------------------|
A|-----------10-10-9-9-------------------------------------------------| x2
E|-10-10-9-9-----------------------------------------------------------|

G|-------------------------------------------------------------------------|
D|-------------------------------------------------------------------------|
A|-14-14-14-14-14-14-14-14-16-16-16-16-16-16-16-16-17-17-17-17-17-17-17-17-| 
E|-------------------------------------------------------------------------|

G|---------------------------------------------------------------------|
D|---------------------------------------------------------------------|
A|-----------10-10-9-9-14----------------------------------------------| x2
E|-10-10-9-9-----------------------------------------------------------|

Tabbed by stevenwilliams7
Suggest correction
comments
print report bad tab
1 comment total.
+1 reply
prt1990 10 Nov 16, 2008 08:22 PM

Best tab i've seen, thank you.

guest
You may want to rate the tab now too:
select rating
Wanna post a correction for this tab? Suggest correction