Oops, an error
Loading. Please wait.

Helicopter Tab

8,979 views 3 this week
4 commentsread comments
1 2 3 4 5
worth learning
x 7
add to favorites
launch autoscroll
font size
0
reset
how to read this tab
guitar tuner
Autoscroll
slow
fast
+/-
esc
set tempo
stop
Help us to improve Ultimate-Guitar.com Take our survey!
×
i play the chords and notes this way for personal prefrence.

Kele = guitar1
Russel = guitar2

^ bend
> slide up
< slide down
s shrap (up and down extremley fast with plectrum)
h harmonic

[Guitar1]

(intro)
e]----------------------------------|----------------------------------|
b]----------------------------------|----------------------------------|
g]----------------------------------|----------------------------------|
d]----------------------------------|----------------------------------|
a]------7-7-5-5-4-4-2-2-0-0-2--4--0-|------7-7-5-5-4-4-2-2-0-0-2--4--0-|
e]--7-7-----------------------------|--7-7-----------------------------|x3

e]----------------------------------|----------------------------------|
b]----------------------------------|----------------------------------|
g]----------------------------------|----------------------------------|
d]----------------------------------|----------------------------------|
a]------7-7-5-5-4-4-2-2-0-0-2--4--0-|------7-7-5-5-4-4-2-2-0-0-2--4>7--|
e]--7-7-----------------------------|--7-7-----------------------------| 

(verse)
e]--------------------|---------------------------|
b]--------------------|---------------------------|
g]--------------------|---------------------------|
d]--9-9-9-9---9-9-9-9-|-10-10-10-10---12-12-12-12-|
a]--9-9-9-9---9-9-9-9-|-12-12-12-12---14-14-14-14-|
e]--7-7-7-7---7-7-7-7-|-12-12-12-12---14-14-14-14-|x4

(bridge)
e]---------------------------------|
b]---------------------------------|
g]---------------------------------|
d]--44444444-99999999-44444444-999-|
a]--44444444-99999999-44444444-999-|
e]--22222222-77777777-22222222-777-|

e]-----------------------------------------------------|
b]-----------------------------------------------------|
g]-----------------------------------------------------|
d]--44444444-99999999-12121212121212121212121212121212-|
a]--44444444-99999999-12121212121212121212121212121212-|
e]--22222222-77777777-10101010101010101010101010101010-| all bridge x2

(chorus)
e]----------------------------------------|
b]----------------------------------------|
g]-----------------------------------9999-|
d]--99999999-77777777-55555555-4444--9999-|
a]--99999999-77777777-55555555-4444--7777-|
e]--77777777-55555555-33333333-2222-------|x4

(intro/middle)
e]----------------------------------|----------------------------------|
b]----------------------------------|----------------------------------|
g]----------------------------------|----------------------------------|
d]----------------------------------|----------------------------------|
a]------7-7-5-5-4-4-2-2-0-0-2--4--0-|------7-7-5-5-4-4-2-2-0-0-2--4--0-|
e]--7-7-----------------------------|--7-7-----------------------------|

e]----------------------------------|----------------------------------|
b]----------------------------------|----------------------------------|
g]----------------------------------|----------------------------------|
d]----------------------------------|----------------------------------|
a]------7-7-5-5-4-4-2-2-0-0-2--4--0-|------7-7-5-5-4-4-2-2-0-0-2--4>7--|
e]--7-7-----------------------------|--7-7-----------------------------|

(verse)
e]--------------------|---------------------------|
b]--------------------|---------------------------|
g]--------------------|---------------------------|
d]--9-9-9-9---9-9-9-9-|-10-10-10-10---12-12-12-12-|
a]--9-9-9-9---9-9-9-9-|-12-12-12-12---14-14-14-14-|
e]--7-7-7-7---7-7-7-7-|-12-12-12-12---14-14-14-14-|x4

(bridge)
e]---------------------------------|
b]---------------------------------|
g]---------------------------------|
d]--44444444-99999999-44444444-999-|                           
a]--44444444-99999999-44444444-999-|                           
e]--22222222-77777777-22222222-777-|                           
                                                               
e]-----------------------------------------------------|       
b]-----------------------------------------------------|       
g]-----------------------------------------------------|
d]--44444444-99999999-12121212121212121212121212121212-|       
a] -44444444-99999999-12121212121212121212121212121212-|       
e]--22222222-77777777-10101010101010101010101010101010-| all bridge x2

(chorus)
e]----------------------------------------|
b]----------------------------------------|
g]-----------------------------------9999-|
d]--99999999-77777777-55555555-4444--9999-|
a]--99999999-77777777-55555555-4444--7777-|
e]--77777777-55555555-33333333-2222-------|x4


(middle8)
e]--12s--13hs--|
b]-------------|
g]-------------|
d]-------------|
a]-------------|
e]-------------|x8

(chorus/outro)
e]---------------------------------------------------|
b]---------------------------------------------------|
g]-----------------------------------11---12---9>>>7-|
d]--99999999-77777777-55555555-4444--11---12---9>>>7-|
a]--99999999-77777777-55555555-4444--9----10---7>>>5-|
e]--77777777-55555555-33333333-2222------------------|x4

end on
e]-----|
b]-----|
g]-----|
d]--9--|
a]--7--|
e]--7--|

****************************************************************************

[Guitar2]

(intro)
e]------------------------------------|----------------------------------|
b]------------------------------------|----------------------------------|
g]------------------------------------|----------------------------------|
d]------9-9-7-7------------11-11-11-9-|-----9-9-7-7-----------11-11-11-9-|
a]--------------9-9-0-0-9-------------|-------------9-9-0-0-9------------|
e]--7-7-------------------------------|-7-7------------------------------|x3

e]------------------------------------|------------------------------------|
b]------------------------------------|------------------------------------|
g]------------------------------------|------------------------------------|
d]------9-9-7-7----------9-11-11-11-9-|-----9-9-7-7---------9-11-11-11-9-9-|
a]--------------9-9-0-0---------------|-------------9-9-0-0----------------|
e]--7-7-------------------------------|-7-7--------------------------------|

(verse)
e]------------------|
b]--rest the--------|
g]--first two-------|
d]--times guitar1---|
a]--plays-----------|
e]------------------|

e]-----------------------------|--------------------10-11-7-----|
b]--------9--------10-7---7----|-------9--------10-7---------10-|
g]--7-9-7---9-7-9-------9---9--|-7-9-7---9-7-9------------------|
d]-----------------------------|--------------------------------|
a]-----------------------------|--------------------------------|
e]-----------------------------|--------------------------------|

e]-----------------------------|----------------------------|
b]--------9--------10-7---7----|-------9--------10--7-------|
g]--7-9-7---9-7-9-------9---9--|-7-9-7---9-7-9---------7--9-|
d]-----------------------------|----------------------------|
a]-----------------------------|----------------------------|
e]-----------------------------|----------------------------|

(bridge)
e]--5--5--------5--5-----5--5--------7--7--7---------|
b]--5--5--7--7--5--5--7--5--5--7--7--7--7--7---------|
g]--7--7--7--7--7--7--7--7--7--7--7--9--9--9--9-7-10-|
d]--7--7--9--9--7--7--9--7--7--9--9--9--9--9---------|
a]--5--5--9--9--5--5--9--5--5--9--9--7--7--7---------|
e]--------7--7--------7--------7--7------------------|x2

(chorus)
e]----------------------------------------------------------------------|
b]--7---7---7---7---7---7---7---7---7---7---7---7---7---7---7---9-7-----|
g]--9^--9^--9^--9^--9^--9^--9^--9^--9^--9^--9^--9^--9^--9^--9^------7-9-|
d]----------------------------------------------------------------------|
a]----------------------------------------------------------------------|
e]----------------------------------------------------------------------|

e]----------------------------------------|
b]----------------------------------------|
g]-----------------------------------9999-|
d]--99999999-77777777-55555555-4444--9999-|
a]--99999999-77777777-55555555-4444--7777-|
e]--77777777-55555555-33333333-2222-------|


e]---------------------|
b]--10--8--7--5>>7-----|
g]------------------7--|
d]---------------------|
a]---------------------|
e]---------------------|

(intro/middle)
e]------------------------------------|----------------------------------|
b]------------------------------------|----------------------------------|
g]------------------------------------|----------------------------------|
d]------9-9-7-7----------9-11-11-11-9-|-----9-9-7-7---------9-11-11-11-9-|
a]--------------9-9-0-0---------------|-------------9-9-0-0--------------|
e]--7-7-------------------------------|-7-7------------------------------|

e]------------------------------------|------------------------------------|
b]------------------------------------|------------------------------------|
g]------------------------------------|------------------------------------|
d]------9-9-7-7----------9-11-11-11-9-|-----9-9-7-7---------9-11-11-11-9-9-|
a]--------------9-9-0-0---------------|-------------9-9-0-0----------------|
e]--7-7-------------------------------|-7-7--------------------------------|

(verse)
e]------------------|
b]--rest the--------|
g]--first two-------|
d]--times guitar1---|
a]--plays-----------|
e]------------------|

e]------------------------------|--------------------7^---10^---|
b]--------9--------10-7---7-----|--------9------10-7------------|
g]--7-9-7---9-7-9-------9---9-7-|-7-9-7---9-7-9-----------------|
d]------------------------------|-------------------------------|
a]------------------------------|-------------------------------|
e]------------------------------|-------------------------------|

e]-----------------------------|----------------------------|
b]--------9--------10-7---7----|-------9--------10--7-------|
g]--7-9-7---9-7-9-------9---9--|-7-9-7---9-7-9---------7--9-|
d]-----------------------------|----------------------------|
a]-----------------------------|----------------------------|
e]-----------------------------|----------------------------|


(bridge)
e]--5--5--------5--5-----5--5--------7--7--7---------|
b]--5--5--7--7--5--5--7--5--5--7--7--7--7--7---------|
g]--7--7--7--7--7--7--7--7--7--7--7--9--9--9--9-7-10-|
d]--7--7--9--9--7--7--9--7--7--9--9--9--9--9---------|
a]--5--5--9--9--5--5--9--5--5--9--9--7--7--7---------|
e]--------7--7--------7--------7--7------------------|x2

(chorus)
e]----------------------------------------------------------------------|
b]--7---7---7---7---7---7---7---7---7---7---7---7---7---7---7---9-7-----|
g]--9^--9^--9^--9^--9^--9^--9^--9^--9^--9^--9^--9^--9^--9^--9^------7-9-|
d]----------------------------------------------------------------------|
a]----------------------------------------------------------------------|
e]----------------------------------------------------------------------|

e]----------------------------------------|
b]----------------------------------------|
g]-----------------------------------9999-|
d]--99999999-77777777-55555555-4444--9999-|
a]--99999999-77777777-55555555-4444--7777-|
e]--77777777-55555555-33333333-2222-------|

e]---------------------|
b]--10--8--7--5>>7-----|
g]------------------7--|
d]---------------------|
a]---------------------|
e]---------------------|

(middle8)
e]------------------|
b]--rest the--------|
g]--first two-------|
d]--times guitar1---|
a]--plays-----------|
e]------------------|

e]--7--10--7--------10---10--|
b]------------8--10----8-----|
g]---------------------------|
d]---------------------------|
a]---------------------------|
e]---------------------------|x6

(chorus/outro)
e]--15-14----| play til end then end on e]--15-14-|
b]--------15-|                          b]--------|
g]-----------|                          g]--------|
d]-----------|                          d]--------|
a]-----------|                          a]--------|
e]-----------|                          e]--------|

and there you have it, even though its very long and complex ;P
Suggest correction
comments
print report bad tab
4 comments total. Showing first comments.
0 reply
emberlylp 10 wrote on April 15 2006, 07:57 am

innacurate!

0 reply
Zwie 93 wrote on June 14 2006, 05:59 pm

I am a Beginner, and I was wondering what I should out my amp on, for this song????
I have a Behringer 15 Watt True Analog Modeling Amp. And a regular 6 string guitar.
What should I put my drive on? {1-10}
My Analog modelings are:
{1st row}
Calif.
British
Tweed

{2nd row}
Hot
Hi Gain
Clean

{3rd Row}
U.S.
U.K.
Flat

And what should I put my Low, Mid, High, and Master Volume controls on, {1-10}
And also the 2 tones on my guitar {1-10} and the volume on my guitar {1-10}. I know is a lot but your help would be greatly appreciated! :}

0 reply
Cookiezzz182 20 wrote on June 22 2009, 05:34 am

wrong...the intro is way different

guest
You may want to rate the tab now too:
select rating
Please do not post tabs as comments. Select "correction" instead!