Oops, an error
Loading. Please wait.

Helicopter Bass Tab

version 4
1,002 views 1 this week
1 commentread comment
1 2 3 4 5
3 more votes to show rating
add to favorites
launch autoscroll
font size
0
reset
guitar tuner
Autoscroll
slow
fast
+/-
esc
set tempo
stop
Help us to improve Ultimate-Guitar.com Take our survey!
×
Author
2x Intro
G|--------|--------|--------|--------|
D|--------|--------|-------2|222-----|
A|-2222--2|222-----|-5555---|--------|
E|--------|--------|--------|--------|

4x Verse
G|--------|--------|--------|--------|
D|--------|--------|-------2|222-----|
A|-2222--2|222-----|-5555---|--------|
E|--------|--------|--------|--------|
                                                     _________________ _________________
2x Pre Chorus                                       |          1st    | 2st             
G|--------|--------|--------|----|---------|--------|--------|--------|--------|--------|
D|--------|--------|--------|----|---------|--------|--------|--------|--------|44448888|
A|--------|222-----|--------|2-2-|---------|222-----|-5555--5|555-5555|55555555|--------|
E|-2222--2|--------|-22222--|----|--2222--2|--------|--------|--------|--------|--------|

4x Chorus
G|--------|--------|--------|--------|
D|99999999|77777777|55555555|----5544|
A|--------|--------|--------|5544----|
E|--------|--------|--------|--------|

2x Intro
G|--------|--------|--------|--------|
D|--------|--------|-------2|222-----|
A|-2222--2|222-----|-5555---|--------|
E|--------|--------|--------|--------|

4x Verse
G|--------|--------|--------|--------|
D|--------|--------|-------2|222-----|
A|-2222--2|222-----|-5555---|--------|
E|--------|--------|--------|--------|

2x Pre Chorus                                       | 1st             | 2st             
G|--------|--------|--------|----|---------|--------|--------|--------|--------|--------|
D|--------|--------|--------|----|---------|--------|--------|--------|--------|44448888|
A|--------|222-----|--------|2-2-|---------|222-----|-5555--5|555-5555|55555555|--------|
E|-2222--2|--------|-22222--|----|--2222--2|--------|--------|--------|--------|--------|
   
4x Chorus
G|--------|--------|--------|--------|
D|99999999|77777777|55555555|----5544|
A|--------|--------|--------|5544----|
E|--------|--------|--------|--------|

4x Breakdown 1
G|--------|--------|
D|99999999|999999--|
A|--------|--------|
E|--------|--------|

Breakdown 2
G|-7777--7|777-----|-7777--7|777-----|-7776--7|776-----|--7-7-7-6-----12|12121211--------|
D|-9999--9|999-----|-9999--9|999-----|-9999--9|999-----|--9-9-9-9-------|----------------|
A|--------|--------|--------|--------|--------|--------|----------------|----------------|
E|--------|--------|--------|--------|--------|--------|----------------|----------------|

4x Chorus                            | 5rd
G|--------|--------|--------|--------|---|
D|99999999|77777777|55555555|----5544|9~-|
A|--------|--------|--------|5544----|---|
E|--------|--------|--------|--------|---|
Suggest correction
Give kudos to tab author, rate the tab!
1 2 3 4 5
comments
print report bad tab
1 comment total.
0 reply
CKBassAddict101 10 May 26, 2010 01:10 PM

Good Job Man, Nice work on that breakdown section 2 :)

guest
You may want to rate the tab now too:
select rating
Wanna post a correction for this tab? Suggest correction