Oops, an error
Loading. Please wait.

Helicopter Bass Tab

version 5
3,575 views 1 this week
no commentswrite comment
1 2 3 4 5
please rate
add to favorites
launch autoscroll
font size
0
reset
guitar tuner
Autoscroll
slow
fast
+/-
esc
set tempo
stop
Help us to improve Ultimate-Guitar.com Take our survey!
×
Author
Tabbed by: jaronthebassist
                                       Helicopter                                         
                                                                                Bloc Party
Bass

       E   E   E   E   E   E   E   E      E   E   E   E   E   E   E   E     
G||-----------14--14--12--12--11--11--|-----------------------------------||
D||*----------------------------------|--14--14--12--12--14--14--16--12--*||
A||*--14--14--------------------------|----------------------------------*||
E||-----------------------------------|-----------------------------------||


    E   E   E   E   E   E   E   E      E   E   E   E   E   E   E   E     
-----------16--16--14--11--11--11--|----------11--11--18--18--16--14---||
*----------------------------------|----------------------------------*||
*--14--14--------------------------|--12--12--------------------------*||
-----------------------------------|-----------------------------------||


   E  E  E  E  E  Q    E     E  E  E  E  H           E  E  E  E  E  Q    E   
--------------------------|-----------------------|-------------------------|
*-------------------------|-----------------------|-------------------------|
*-------------------------|-----------------------|-----5--5--5--5-------7--|
------7--7--7--7-------7--|--7--7--7--------------|-------------------------|


  E  E  E  E  H         6x  E  E  E  E  E  Q    E     E  E  E  E  H         
------------------------||-------------------------|-----------------------|
-----------------------*||-------------------------|-----------------------|
--7--7--7--------------*||-------------------------|--2--2--2--------------|
------------------------||-----2--2--2--2-------2--|-----------------------|


  E  E  E  E  E  Q    E     E  E  E  Q.        E  E  E  Q    E     E  E  E  E  H         
-------------------------|------------------|-------------------|-----------------------|
-------------------------|------------------|-------------------|-----------------------|
-------------------------|--2-----2---------|-------------------|--2--2--2--------------|
-----2--2--2--2-------2--|------------------|--2--2--2-------2--|-----------------------|


  E  E  E  E  E  Q    E     E  E  E  E  E  E  E  E     E  E  E  E  E  Q    E   
-------------------------|--------------------------|-------------------------|
-------------------------|--------------------------|-------------------------|
-----5--5--5--5-------5--|--5--5--5-----5--5--5-----|-------------------------|
-------------------------|--------------------------|-----2--2--2--2-------2--|


  E  E  E  E  H           E  E  E  E  E  Q    E     E  E  E  Q.        E  E  E  Q    E   
-----------------------|-------------------------|------------------|-------------------|
-----------------------|-------------------------|------------------|-------------------|
--2--2--2--------------|-------------------------|--2-----2---------|-------------------|
-----------------------|-----2--2--2--2-------2--|------------------|--2--2--2-------2--|


  E  E  E  E  H           E  E  E  E  E  E  E  E     E  E  E  E   E  E  E  E   
-----------------------|--------------------------|---------------------------|
-----------------------|--------------------------|--4--4--4--4S--8--8--8--8--|
--2--2--2--------------|--5--5--5--5--5--5--5--5--|---------------------------|
-----------------------|--------------------------|---------------------------|


  E  E  E  E  E  E  E  E     E  E  E  E  E  E  E  E     E  E  E  E  E  E  E  E   
--------------------------|--------------------------|--------------------------|
--9--9--9--9--9--9--9--9--|--7--7--7--7--7--7--7--7--|--5--5--5--5--5--5--5--5--|
--------------------------|--------------------------|--------------------------|
--------------------------|--------------------------|--------------------------|


  E  E  E  E  E  E  E  E     E  E  E  E  E  E  E  E     E  E  E  E  E  E  E  E   
--------------------------|--------------------------|--------------------------|
--------------5--5--4--4--|--9--9--9--9--9--9--9--9--|--7--7--7--7--7--7--7--7--|
--5--5--4--4--------------|--------------------------|--------------------------|
--------------------------|--------------------------|--------------------------|


  E  E  E  E  E  E  E  E     E  E  E  E  E  E  E  E     E  E  E  E  E  E  E  E   
--------------------------|--------------------------|--------------------------|
--5--5--5--5--5--5--5--5--|--------------7--7--5--5--|--9--9--9--9--9--9--9--9--|
--------------------------|--5--5--4--4--------------|--------------------------|
--------------------------|--------------------------|--------------------------|


   E   E   E   E   E   E   E   E      E   E   E   E   E   E   E   E   
----------------------------------|----------------------------------|
--11--11--11--11--11--11--11--11--|--12--12--12--12--12--12--12--12--|
----------------------------------|----------------------------------|
----------------------------------|----------------------------------|


  E  E  E  E  E  E  E  E     E  E  E  E  E  E  E  E     E  E  E  E  E  E  E  E   
--------------------------|--------------------------|--------------------------|
--------------5--5--4--4--|--9--9--9--9--9--9--9--9--|--7--7--7--7--7--7--7--7--|
--5--5--4--4--------------|--------------------------|--------------------------|
--------------------------|--------------------------|--------------------------|


  E  E  E  E  E  E  E  E     E  E  E  E  E  E  E  E       E  E  E  E  E  Q    E   
--------------------------|--------------------------||--------------------------|
--5--5--5--5--5--5--5--5--|--------------7--7--5--5--||*-------------------------|
--------------------------|--5--5--4--4--------------||*-------------------------|
--------------------------|--------------------------||------7--7--7--7-------7--|


  E  E  E  E  H           E  E  E  E  E  Q    E     E  E  E  E  H         6x
-----------------------|-------------------------|------------------------||
-----------------------|-------------------------|-----------------------*||
-----------------------|-----5--5--5--5-------7--|--7--7--7--------------*||
--7--7--7--------------|-------------------------|------------------------||


  E  E  E  E  E  Q    E     E  E  E  E  H           E  E  E  E  E  Q    E   
-------------------------|-----------------------|-------------------------|
-------------------------|-----------------------|-------------------------|
-------------------------|--2--2--2--------------|-------------------------|
-----2--2--2--2-------2--|-----------------------|-----2--2--2--2-------2--|


  E  E  E  Q.        E  E  E  Q    E     E  E  E  E  H           E  E  E  E  E  Q    E   
------------------|-------------------|-----------------------|-------------------------|
------------------|-------------------|-----------------------|-------------------------|
--2-----2---------|-------------------|--2--2--2--------------|-----5--5--5--5-------5--|
------------------|--2--2--2-------2--|-----------------------|-------------------------|


  E  E  E  E  E  E  E  E     E  E  E  E  E  Q    E     E  E  E  E  H         
--------------------------|-------------------------|-----------------------|
--------------------------|-------------------------|-----------------------|
--5--5--5-----5--5--5-----|-------------------------|--2--2--2--------------|
--------------------------|-----2--2--2--2-------2--|-----------------------|


  E  E  E  E  E  Q    E     E  E  E  Q.        E  E  E  Q    E     E  E  E  E  H         
-------------------------|------------------|-------------------|-----------------------|
-------------------------|------------------|-------------------|-----------------------|
-------------------------|--2-----2---------|-------------------|--2--2--2--------------|
-----2--2--2--2-------2--|------------------|--2--2--2-------2--|-----------------------|


  E  E  E  E  E  E  E  E     E  E  E  E   E  E  E  E     E  E  E  E  E  E  E  E   
--------------------------|---------------------------|--------------------------|
--------------------------|--4--4--4--4S--8--8--8--8--|--9--9--9--9--9--9--9--9--|
--5--5--5--5--5--5--5--5--|---------------------------|--------------------------|
--------------------------|---------------------------|--------------------------|


  E  E  E  E  E  E  E  E     E  E  E  E  E  E  E  E     E  E  E  E  E  E  E  E   
--------------------------|--------------------------|--------------------------|
--7--7--7--7--7--7--7--7--|--5--5--5--5--5--5--5--5--|--------------5--5--4--4--|
--------------------------|--------------------------|--5--5--4--4--------------|
--------------------------|--------------------------|--------------------------|


  E  E  E  E  E  E  E  E     E  E  E  E  E  E  E  E     E  E  E  E  E  E  E  E   
--------------------------|--------------------------|--------------------------|
--9--9--9--9--9--9--9--9--|--7--7--7--7--7--7--7--7--|--5--5--5--5--5--5--5--5--|
--------------------------|--------------------------|--------------------------|
--------------------------|--------------------------|--------------------------|


  E  E  E  E  E  E  E  E     E  E  E  E  E  E  E  E      E   E   E   E   E   E   E   E   
--------------------------|--------------------------|----------------------------------|
--------------7--7--5--5--|--9--9--9--9--9--9--9--9--|--11--11--11--11--11--11--11--11--|
--5--5--4--4--------------|--------------------------|----------------------------------|
--------------------------|--------------------------|----------------------------------|


   E   E   E   E   E   E   E   E     E  E  E  E  E  E  E  E     E  E  E  E  E  E  E  E   
----------------------------------|--------------------------|--------------------------|
--12--12--12--12--12--12--12--12--|--------------5--5--4--4--|--9--9--9--9--9--9--9--9--|
----------------------------------|--5--5--4--4--------------|--------------------------|
----------------------------------|--------------------------|--------------------------|


  E  E  E  E  E  E  E  E     E  E  E  E  E  E  E  E     E  E  E  E  E  E  E  E   
--------------------------|--------------------------|--------------------------|
--7--7--7--7--7--7--7--7--|--5--5--5--5--5--5--5--5--|--------------7--7--5--5--|
--------------------------|--------------------------|--5--5--4--4--------------|
--------------------------|--------------------------|--------------------------|


    W                   W                 4x  E   E   E   E   E  Q     E   
|--------------------|--------------------||------------------------------|
|*--9----------------|--L----------------*||-----12--12--12--12-------12--|
|*-------------------|-------------------*||------------------------------|
|--------------------|--------------------||------------------------------|


   E   E   E  E  H           E   E   E   E   E  Q     E      E   E   E  E  H         
--------------------------|------------------------------|--------------------------|
--12--12--12--------------|-----12--12--12--12-------12--|--12--12--12--------------|
--------------------------|------------------------------|--------------------------|
--------------------------|------------------------------|--------------------------|


  E   E   E   E   E  Q     E      E   E   E  E  H           E   E   E   E   E  Q     E   
------------------------------|--------------------------|--------------------------12--|
-----12--12--12--11-------12--|--12--12--11--------------|-----12--12--12--11-----------|
------------------------------|--------------------------|------------------------------|
------------------------------|--------------------------|------------------------------|


   E   E   E  Q.     Q        E  E  E  E  E  E  E  E     E  E  E  E  E  E  E  E   
--12--12--11---------------|--------------------------|--------------------------|
---------------------5S----|--9--9--9--9--9--9--9--9--|--7--7--7--7--7--7--7--7--|
---------------------------|--------------------------|--------------------------|
---------------------------|--------------------------|--------------------------|


  E  E  E  E  E  E  E  E     E  E  E  E  E  E  E  E     E  E  E  E  E  E  E  E   
--------------------------|--------------------------|--------------------------|
--5--5--5--5--5--5--5--5--|--------------5--5--4--4--|--9--9--9--9--9--9--9--9--|
--------------------------|--5--5--4--4--------------|--------------------------|
--------------------------|--------------------------|--------------------------|


  E  E  E  E  E  E  E  E     E  E  E  E  E  E  E  E     E  E  E  E  E  E  E  E   
--------------------------|--------------------------|--------------------------|
--7--7--7--7--7--7--7--7--|--5--5--5--5--5--5--5--5--|--------------7--7--5--5--|
--------------------------|--------------------------|--5--5--4--4--------------|
--------------------------|--------------------------|--------------------------|


  E  E  E  E  E  E  E  E      E   E   E   E   E   E   E   E   
--------------------------|----------------------------------|
--9--9--9--9--9--9--9--9--|--11--11--11--11--11--11--11--11--|
--------------------------|----------------------------------|
--------------------------|----------------------------------|


   E   E   E   E   E   E   E   E     E  E  E  E  E  E  E  E     E  E  E  E  E  E  E  E   
----------------------------------|--------------------------|--------------------------|
--12--12--12--12--12--12--12--12--|--------------5--5--4--4--|--9--9--9--9--9--9--9--9--|
----------------------------------|--5--5--4--4--------------|--------------------------|
----------------------------------|--------------------------|--------------------------|


   E   E   E   E   E   E   E   E      E   E   E   E   E   E   E   E   
----------------------------------|----------------------------------|
--11--11--11--11--11--11--11--11--|--12--12--12--12--12--12--12--12--|
----------------------------------|----------------------------------|
----------------------------------|----------------------------------|


  E  E  E  E  E  E  E  E     W                  
--------------------------|-------------------||
--------------7--7--5--5--|--9----------------||
--5--5--4--4--------------|-------------------||
--------------------------|-------------------||




Duration Legend
---------------
W - whole
H - half
Q - quarter
E - 8th
S - 16th
T - 32nd
X - 64th
. - note dotted
|-n-|  - n-tuplets


Tablature Legend
----------------
L - tied note
x - dead note
g - grace note
(n) - ghost note
> - accentuded note
NH - natural harmonic
AH - artificial harmonic
TH - tapped harmonic
SH - semi harmonic
PH - pitch harmonic
h - hammer on
p - pull off
b - bend
br - bendRelease
pb - preBend
pbr - preBendRelease
brb - bendReleaseBend
\n/ - tremolo bar dip
\n - tremolo bar dive
-/n - tremolo bar Release up
/n\ - tremolo bar inverted dip
/n - tremolo bar return
-\n - tremolo bar Release down
S - shift slide
s - legato slide
/ -  slide into from below or out of upwards
\ -  slide into from above or out of downwards
~ - vibrato
W - wide vibrato
tr - trill
TP - tremolo picking
T - tapping
S - slap
P - pop
< - fade in
^ - brush up
v - brush down
Suggest correction
What's this?
You can suggest a correction to this tab. Community and Mods will review your correction and vote to approve or reject it.
comments
We did not receive enough feedback on this tab! Please rate:
print report bad tab
1 2 3 4 5
guest
You may want to rate the tab now too:
select rating
Please do not post tabs as comments. Select "correction" instead!