Oops, an error
Loading. Please wait.

Helicopter Guitar Pro

version 6
15,419 views 27 this week
4 commentsread comments
1 2 3 4 5
accurate
x 17
add to favorites
guitar tuner
Autoscroll
slow
fast
+/-
esc
set tempo
stop
Help us to improve Ultimate-Guitar.com Take our survey!
×
Author
Filesize
Instruments
92 Kb
rhythm guitar, lead guitar, bass, percussion, vocal #1, vocal #2, vocal #3, vocal #4
"Helicopter"
demo version
Play now

or get full version for Free

Get full version now!
To learn and play this song
in Tab Pro, start free trial
Start free trial

or get $10 off Welcome Bonus

Get welcome bonus
Get access to Tab Pro version of “Helicopter”!
Tab Pro is a premium guitar tab service, available on PC, Mac, iOS and Android
START FREE TRIAL
Your download will start in 7 seconds
×
Enter for a chance to win a FREE lesson from The Doors’ guitarist Robby Krieger plus other great prizes!
To download “Helicopter” Guitar Pro tab click button below
Please note that you must have Guitar Pro software installed on your
computer in order to view this file.
comments
report bad tab
4 comments total. Showing first comments.
0 reply
phil conry 515 wrote on November 10 2010, 11:03 pm

rapidly becoming a huge fan of your bloc tabs, but my only comment is that i think the riff in the bridge bit sounds better played like:


e|-------14----------------|
B|-12-15----12----15----15-|
G|-------------14----12----|
D|-------------------------|
A|-------------------------|
E|-------------------------|


and at the end of the chorus rhythm riff its probably easier to play it

e|---------------------|
B|---------------------|
G|---------------------|
D|---------------------|
A|-----------10-10-9-9-|
E|-10-10-9-9-----------|


just because you can play it with strummed downstrokes without having to jump down the neck like.
just my opinion on it anyhow.
yet again its still a class act of a tab though.

+1 reply
scotch59 471 wrote on May 26 2011, 07:59 pm

Probably the closest GP tab I have seen. The intro seems a bit off to me

e|--------------------------------------------
B|--------------------------------------------
G|--------------------------------------------
D|--------------------------------------------
A|-------9-9-7-7--4-4------4-4--11-11-9-9-----
E|--7-7----------------5-5--------------------

And Russel's second part of the verse, I believe its easier and sounds a little better to play a 7 on the G string versus on the B and G, like so

B|--7-7-7-7---7---
G|----------9---9- etc...

and last the end outro/solo with the harmonics

it should be 12-10 instead of 10-16
all harmonics
e|------------------------------------------------|
B|--12-12-12-12-12-12-10-10-10-10-10-10 etc.......|
G|------------------------------------------------|
D|------------------------------------------------|
A|------------------------------------------------|

but really good tab otherwise!
E|------------------------------------------------|

0 reply
Medlumman 12 wrote on February 1 2012, 04:22 am

to the dude who rated this really harshley so its now 4 starts than 5, please explain why?

guest
You may want to rate the tab now too:
select rating
Please do not post tabs as comments. Select "correction" instead!