Oops, an error
Loading. Please wait.

Helicopter Tab

9,623 views 1 this week
1 commentread comment
1 2 3 4 5
please rate
add to favorites
launch autoscroll
font size
0
reset
how to read this tab
guitar tuner
Autoscroll
slow
fast
+/-
esc
set tempo
stop
Help us to improve Ultimate-Guitar.com Take our survey!
×
Author
Difficulty
Artist/Band - Bloc Party
Album - Silent Alarm
Song - Helicopter

GUITAR:
======

Tuning: Standard (E A D G B E)

Key:
x = Mute String
b = Bend String
/ = Slide Upwards


GUITAR 1:

Intro:
E]-------------------------------------|
B]-------------------------------------|
G]-------------------------------------|
D]------7-7-5-5-4-4-----4-4-11-11-9-9--|
A]-------------------------------------|
E]--7-7-------------5-5----------------|

E]-------------------------------------|
B]-------------------------------------|
G]-------------------------------------|
D]------7-7-5-5-4-4-----4-4-11-11-9-9--|
A]-------------------------------------|
E]--7-7-------------5-5----------------|

E]-------------------------------------|
B]-------------------------------------|
G]-------------------------------------|
D]------7-7-5-5-4-4-----4-4-11-11-9-9--|
A]-------------------------------------|
E]--7-7-------------5-5----------------|

E]-------------------------------------|
B]-------------------------------------|
G]-------------------------------------|
D]------7-7-5-5-4-4-----4-4-11-11-9-9--|
A]-------------------------------------|
E]--7-7-------------5-5----------------|

E]-------------------------------------|
B]-------------------------------------|
G]-------------------------------------|
D]------7-7-5-5-4-4-----4-4-11-11-9-9--|
A]-------------------------------------|
E]--7-7-------------5-5----------------|

E]-------------------------------------|
B]-------------------------------------|
G]-------------------------------------|
D]------7-7-5-5-4-4-----4-4-11-11-9-9--|
A]-------------------------------------|
E]--7-7-------------5-5----------------|

E]-------------------------------------|
B]-------------------------------------|
G]-------------------------------------|
D]------7-7-5-5-4-4-----4-4-11-11-9-9--|
A]-------------------------------------|
E]--7-7-------------5-5----------------|

E]-------------------------------------|
B]-------------------------------------|
G]-------------------------------------|
D]------7-7-5-5-4-4-----4-4-11-11-9-9--|
A]-------------------------------------|
E]--7-7-------------5-5----------------|

Verse 1:
E]--------------------------------------|
B]--------------------------------------|
G]--------------------7-7-7-7--9-9-9-9--|
D]--9-9-9-9--9-9-9-9--7-7-7-7--9-9-9-9--|
A]--9-9-9-9--9-9-9-9--5-5-5-5--7-7-7-7--|
E]--7-7-7-7--7-7-7-7--------------------|

E]--------------------------------------|
B]--------------------------------------|
G]--------------------7-7-7-7--9-9-9-9--|
D]--9-9-9-9--9-9-9-9--7-7-7-7--9-9-9-9--|
A]--9-9-9-9--9-9-9-9--5-5-5-5--7-7-7-7--|
E]--7-7-7-7--7-7-7-7--------------------|

E]--------------------------------------|
B]--------------------------------------|
G]--------------------7-7-7-7--9-9-9-9--|
D]--9-9-9-9--9-9-9-9--7-7-7-7--9-9-9-9--|
A]--9-9-9-9--9-9-9-9--5-5-5-5--7-7-7-7--|
E]--7-7-7-7--7-7-7-7--------------------|

E]--------------------------------------|
B]--------------------------------------|
G]--------------------7-7-7-7--9-9-9-9--|
D]--9-9-9-9--9-9-9-9--7-7-7-7--9-9-9-9--|
A]--9-9-9-9--9-9-9-9--5-5-5-5--7-7-7-7--|
E]--7-7-7-7--7-7-7-7--------------------|

Pre-Chorus:
E]-----------------------------------------------|
B]-----------------------------------------------|
G]--x-x-7-x-x-7-x-x-9-x-x-9-x-x-7-x-x-7-x-x-9-9--|
D]--x-x-9-x-x-7-x-x-7-x-x-9-x-x-9-x-x-7-x-x-9-9--|
A]------------------------------------------7-7--|
E]-----------------------------------------------|

E]-----------------------------------------------|
B]-----------------------------------------------|
G]--x-x-7-x-x-7-x-x-9-x-x-9-x-x-7-x-x-7-x-x-9-9--|
D]--x-x-9-x-x-7-x-x-7-x-x-9-x-x-9-x-x-7-x-x-9-9--|
A]------------------------------------------7-7--|
E]-----------------------------------------------|

Chorus:
E]-----|
B]-7---|
G]-9b--| Repeat a few times.
D]-----|
A]-----|
E]-----|

Post-Chorus:
E]-------------------------------------|
B]-------------------------------------|
G]-------------------------------------|
D]------7-7-5-5-4-4-----4-4-11-11-9-9--|
A]-------------------------------------|
E]--7-7-------------5-5----------------|

E]-------------------------------------|
B]-------------------------------------|
G]-------------------------------------|
D]------7-7-5-5-4-4-----4-4-11-11-9-9--|
A]-------------------------------------|
E]--7-7-------------5-5----------------|

E]-------------------------------------|
B]-------------------------------------|
G]-------------------------------------|
D]------7-7-5-5-4-4-----4-4-11-11-9-9--|
A]-------------------------------------|
E]--7-7-------------5-5----------------|

E]-------------------------------------|
B]-------------------------------------|
G]-------------------------------------|
D]------7-7-5-5-4-4-----4-4-11-11-9-9--|
A]-------------------------------------|
E]--7-7-------------5-5----------------|

Verse 2:
E]--------------------------------------|
B]--------------------------------------|
G]--------------------7-7-7-7--9-9-9-9--|
D]--9-9-9-9--9-9-9-9--7-7-7-7--9-9-9-9--|
A]--9-9-9-9--9-9-9-9--5-5-5-5--7-7-7-7--|
E]--7-7-7-7--7-7-7-7--------------------|

E]--------------------------------------|
B]--------------------------------------|
G]--------------------7-7-7-7--9-9-9-9--|
D]--9-9-9-9--9-9-9-9--7-7-7-7--9-9-9-9--|
A]--9-9-9-9--9-9-9-9--5-5-5-5--7-7-7-7--|
E]--7-7-7-7--7-7-7-7--------------------|

E]--------------------------------------|
B]--------------------------------------|
G]--------------------7-7-7-7--9-9-9-9--|
D]--9-9-9-9--9-9-9-9--7-7-7-7--9-9-9-9--|
A]--9-9-9-9--9-9-9-9--5-5-5-5--7-7-7-7--|
E]--7-7-7-7--7-7-7-7--------------------|

E]--------------------------------------|
B]--------------------------------------|
G]--------------------7-7-7-7--9-9-9-9--|
D]--9-9-9-9--9-9-9-9--7-7-7-7--9-9-9-9--|
A]--9-9-9-9--9-9-9-9--5-5-5-5--7-7-7-7--|
E]--7-7-7-7--7-7-7-7--------------------|

Pre-Chorus:
E]-----------------------------------------------|
B]-----------------------------------------------|
G]--x-x-7-x-x-7-x-x-9-x-x-9-x-x-7-x-x-7-x-x-9-9--|
D]--x-x-9-x-x-7-x-x-7-x-x-9-x-x-9-x-x-7-x-x-9-9--|
A]------------------------------------------7-7--|
E]-----------------------------------------------|

E]-----------------------------------------------|
B]-----------------------------------------------|
G]--x-x-7-x-x-7-x-x-9-x-x-9-x-x-7-x-x-7-x-x-9-9--|
D]--x-x-9-x-x-7-x-x-7-x-x-9-x-x-9-x-x-7-x-x-9-9--|
A]------------------------------------------7-7--|
E]-----------------------------------------------|

Chorus:
E]-----|
B]-7---|
G]-9b--| Repeat a few times.
D]-----|
A]-----|
E]-----|

Solo:
E]--------------|
B]--8----10-----|
G]----10----10--| (The little bit just before the solo)
D]--------------|
A]--------------|
E]--------------|

E]----------------------------|
B]--12-(x16)--x-x-x-x-x-x-x-x-|
G]----------------------------|
D]----------------------------|
A]----------------------------|
E]----------------------------|

(Accompanied by Guitar 2 until now)

E]------10-------------10-----10--|
B]--12--------12--10-------8------|
G]--------------------------------|
D]--------------------------------|
A]--------------------------------|
E]--------------------------------|

Chorus:
E]--15--14------|
B]----------15--|
G]--------------| Repeat a few times.
D]--------------|
A]--------------|
E]--------------|

(Let last note ring while drummer finishes song off)

GUITAR 2:

Intro:
E]-----------------------------------|
B]-----------------------------------|
G]-----------------------------------|
D]-----------------------------------|
A]-------5-5-7-7-9--------5-5-7-7-9--|
E]--7-7-------------5--5-------------|

Verse 1: (Comes in after Guitar 1 does the bit twice)
E]---------------------------------|
B]----------7--------10-7---7------|
G]-----7------7---7-------7---7----|
D]--9----9------9---------------9--|
A]---------------------------------|
E]---------------------------------|

E]---------------------7-10-------|
B]--------7-------8-7-------10-7--|
G]----7-----7---7-----------------|
D]--9---9-----9-------------------|
A]--------------------------------|
E]--------------------------------|

E]---------------------------------|
B]----------7--------10-7---7------|
G]-----7------7---7-------7---7----|
D]--9----9------9---------------9--|
A]---------------------------------|
E]---------------------------------|

E]----------------------------|
B]--------7-------8-7----7----|
G]----7-----7---7------7------|
D]--9---9-----9------------9--|
A]----------------------------|
E]----------------------------|

Pre-Chorus:
E]-----------------------------------------------|
B]-----------------------------------------------|
G]--x-x-7-x-x-7-x-x-9-x-x-9-x-x-7-x-x-7-x-x-9-9--|
D]--x-x-9-x-x-7-x-x-7-x-x-9-x-x-9-x-x-7-x-x-9-9--|
A]------------------------------------------7-7--|
E]-----------------------------------------------|

E]-----------------------------------------------|
B]-----------------------------------------------|
G]--x-x-7-x-x-7-x-x-9-x-x-9-x-x-7-x-x-7-x-x-9-9--|
D]--x-x-9-x-x-7-x-x-7-x-x-9-x-x-9-x-x-7-x-x-9-9--|
A]------------------------------------------7-7--|
E]-----------------------------------------------|

Chorus:
E]----------------------------|
B]--12-------10-------8-------|
G]--11-(x8)---9-(x8)--7-(x8)--|
D]---9--------7-------5-------|
A]----------------------------|
E]----------------------------|

E]----------------------------|
B]----------------------------|
G]--4-------6-------7---------|
D]--4-(x8)--7-(x8)--7-(x8)----|
A]--2-------4-------5---------|
E]----------------------------|

E]----------------------------|
B]--10-8-7-5-5-7---8/10-0-----|
G]---------------7------------|
D]----------------------------|
A]----------------------------|
E]----------------------------|

Verse 2:
E]--------------------------------|
B]--------7-------10-7----7-------|
G]----7-----7---7------7----7-----|
D]--9---9-----9----------------9--|
A]--------------------------------|
E]--------------------------------|

E]--------------------------|
B]--------7-------8-7---9b--|
G]----7-----7---7-----7-----|
D]--9---9-----9-------------|
A]--------------------------|
E]--------------------------|

Pre-Chorus:
E]-----------------------------------------------|
B]-----------------------------------------------|
G]--x-x-7-x-x-7-x-x-9-x-x-9-x-x-7-x-x-7-x-x-9-9--|
D]--x-x-9-x-x-7-x-x-7-x-x-9-x-x-9-x-x-7-x-x-9-9--|
A]------------------------------------------7-7--|
E]-----------------------------------------------|

E]-----------------------------------------------|
B]-----------------------------------------------|
G]--x-x-7-x-x-7-x-x-9-x-x-9-x-x-7-x-x-7-x-x-9-9--|
D]--x-x-9-x-x-7-x-x-7-x-x-9-x-x-9-x-x-7-x-x-9-9--|
A]------------------------------------------7-7--|
E]-----------------------------------------------|

Chorus:
E]----------------------------|
B]--12-------10-------8-------|
G]--11-(x8)---9-(x8)--7-(x8)--|
D]---9--------7-------5-------|
A]----------------------------|
E]----------------------------|

E]----------------------------|
B]----------------------------|
G]--4-------6-------7---------|
D]--4-(x8)--7-(x8)--7-(x8)----|
A]--2-------4-------5---------|
E]----------------------------|

E]----------------------------|
B]--10-8-7-5-5-7---8/10-0-----|
G]---------------7------------|
D]----------------------------|
A]----------------------------|
E]----------------------------|

Solo:
E]--------------|
B]--8----10-----|
G]----10----10--| (The little bit just before the solo)
D]--------------|
A]--------------|
E]--------------|

E]----------------------------|
B]--12-(x16)--x-x-x-x-x-x-x-x-|
G]----------------------------|
D]----------------------------|
A]----------------------------|
E]----------------------------|

(Guitar 2 accompanies Guitar 1 until Guitar 1 plays this...)

E]------10-------------10-----10--|
B]--12--------12--10-------8------|
G]--------------------------------|
D]--------------------------------|
A]--------------------------------|
E]--------------------------------|

Chorus:
E]--------------------------|
B]--------------------------|
G]--4-------6-------7-------|
D]--4-(x8)--7-(x8)--7-(x8)--|
A]--2-------4-------5-------|
E]--------------------------|
Suggest correction
Give kudos to tab author, rate the tab!
1 2 3 4 5
comments
print report bad tab
1 comment total.
0 reply
emberlylp 10 wrote on April 15 2006, 08:01 am

needs a bit o fixing but otherwise very good tab

guest
You may want to rate the tab now too:
select rating
Wanna post a correction for this tab? Suggest correction