Oops, an error
Loading. Please wait.

Hunting For Witches Tab

version 1
version 1

Intro

Whole song

Interactive

51,936 views 9 this week
54 commentsread comments
1 2 3 4 5
accurate
x 81
add to favorites
launch autoscroll
font size
0
reset
how to read this tab
guitar tuner
Autoscroll
slow
fast
+/-
esc
set tempo
stop
Help us to improve Ultimate-Guitar.com Take our survey!
×
Author
Gavin Davis
Standard Tuning
Taken Off The Album Out In Febuary
Album: A Weekend In The City



Russel Lissack (Guitar 1) With Whammy pedal And Slapback Delay
e|----------------------------------------|
b|----------------------------------------|
g|----------------------------------------|
d|-----7---12-12-11--------6-7-----7-9----|
a|-9-9---9----------12-4-4-----5-5--------|
E|----------------------------------------|


e|--------------------------------------|
b|--------------------------------------|
g|--------------------------------------|
d|-----7---14-12-11-----7-9-----9-11----|
a|-9-9---9----------5-5-----7-7---------|
E|--------------------------------------|





Suggest correction
comments
print report bad tab
54 comments total. Showing first comments.
0 reply
gavindavis 219 wrote on November 28 2006, 07:26 pm

why was this rated 1 star this is correct.

0 reply
iminthecorner 10 wrote on November 29 2006, 07:21 am

someone care to explain to me why this is 3 star this is the correct version good job gavin davis

0 reply
clairebear 10 wrote on November 29 2006, 07:31 am

yerp this version is the best 5/5 good job

guest
You may want to rate the tab now too:
select rating
Please do not post tabs as comments. Select "correction" instead!