Oops, an error
Loading. Please wait.

Hunting For Witches Tab

version 4
version 4

Whole song

Interactive

11,396 views 3 this week
7 commentsread comments
1 2 3 4 5
worth learning
x 6
add to favorites
launch autoscroll
font size
0
reset
how to read this tab
guitar tuner
Autoscroll
slow
fast
+/-
esc
set tempo
stop
Help us to improve Ultimate-Guitar.com Take our survey!
×
Author
-------------------------------------------------------------------------------
                             SONG NAME - Band Name
-------------------------------------------------------------------------------
Tabbed by: Freddieeee
Email: fredmg@blueyonder.co.uk

Tuning: Standard loike

Begins with slidy down thing, then this riff for most of the song.

e|--------------10-10-9---------------------------------------------------------|
B|--------10------------10-------9-10-------10-12-------------------------------|
G|--11-11----11-----------------------------------------------------------------|
D|-------------------------11-11------11-11-------------------------------------|
A|------------------------------------------------------------------------------|
E|------------------------------------------------------------------------------|

e|--------------12-10-9------------------------------------------------------|
B|--------10------------------10-12-------12-14------------------------------|
G|--11-11----11--------------------------------------------------------------|
D|----------------------11-11-------11-11------------------------------------|
A|---------------------------------------------------------------------------|
E|---------------------------------------------------------------------------|

Repeat that for the verse, and continue into chorus, when Kele starts with guitar 2:

e|---------------------------------------------------------------------------|
B|---------------------------------------------------------------------------|
G|--11-11-------------11-11-------9-9----------------------------------------|
D|--11-11-11-11-12-12-11-11-12-12-9-9----------------------------------------|
A|---9--9-11-11-12-12--9--9-12-12-7-7----------------------------------------|
E|---------9--9-10-10-------10-10--------------------------------------------|

e|---------------------------------------------------------------------------|
B|---------------------------------------------------------------------------|
G|--11-11-------------9------------------------------------------------------|
D|--11-11-11-11-12-12-9-9-11-------------------------------------------------|
A|---9--9-11-11-12-12-7-9-11-------------------------------------------------|
E|---------9--9-10-10---7--9-------------------------------------------------|
                      * *  *

* These are longer, listen for rhythm.

Same riff for verse.

Continue riff for chorus with added 2nd guitar.

THEN:

Middle 8:

Kele's guitar for entireity:

e|---------------------------------------------------------------------------|
B|---------------------------------------------------------------------------|
G|--9-------------9----------------------------------------------------------|
D|--9--9--11--12--9--9--11--12-----------------------------------------------|
A|--7--9--11--12--7--9--11--12-----------------------------------------------|
E|-----7---9--10-----7---9--10-----------------------------------------------|

Then Russel comes in with the guitar that follows the vocals, strange effect giving it 
sound. Play each note as a tremolo.

e|---------------------------------------------------------------------------|
B|--7-9-10-12-14-12-17-14----------------------------------------------------|
G|---------------------------------------------------------------------------|
D|---------------------------------------------------------------------------|
A|---------------------------------------------------------------------------|
E|---------------------------------------------------------------------------|

Then it all stops, and Russel comes in with some nice hard slide guitar.

e|---------------------------------------------------------------------------|
B|--14\2-15\2-17\2-15\2------------------------------------------------------|
G|---------------------------------------------------------------------------|
D|---------------------------------------------------------------------------|
A|---------------------------------------------------------------------------|
E|---------------------------------------------------------------------------|

Play that twice, then:

e|---------------------------------------------------------------------------|
B|--15-14-10-9---------------------------------------------------------------|
G|---------------------------------------------------------------------------|
D|---------------------------------------------------------------------------|
A|---------------------------------------------------------------------------|
E|---------------------------------------------------------------------------|

And then go straight into the chorus, then repeat the middle 8, and then the songs over.

Email with corrections yes?

| /  slide up
| \  slide down
| h  hammer-on
| p  pull-off
| ~  vibrato
| +  harmonic
| x  Mute note
===============================================================================
Suggest correction
What's this?
You can suggest a correction to this tab. Community and Mods will review your correction and vote to approve or reject it.
comments
print report bad tab
7 comments total. Showing first comments.
0 reply
gavindavis 153 wrote on November 29 2006, 07:10 am

your missing notes and keles part is all wrong good try tho check out my intro tab that is the correct version.

0 reply
iminthecorner 14 wrote on November 29 2006, 07:25 am

this is totally wrong check out the gavin davis version it is 100% correct for russels and keles parts nice try tho

0 reply
clairebear 13 wrote on November 29 2006, 07:32 am

missing notes that are obvious in the intro and as the guy above me said the kele part is wrong

guest
You may want to rate the tab now too:
select rating
Please do not post tabs as comments. Select "correction" instead!