Oops, an error
Loading. Please wait.

Hunting For Witches Tab

version 5
version 5

Whole song

Interactive

3,727 views 1 this week
2 commentsread comments
1 2 3 4 5
worth learning
x 3
add to favorites
launch autoscroll
font size
0
reset
how to read this tab
guitar tuner
Tab Pro tools
  • play this tab
  • loop segment
  • change instrument
  • show fretboard
  • metronome
×
Best way to learn
"Hunting For Witches"
Autoscroll
slow
fast
+/-
esc
set tempo
stop
Contributor
Difficulty
intermediate
-BLOC PARTY-
-HUNTING FOR WITCHES-
-A WEEKEND IN THE CITY-

****TAB CREATED FROM FUZZY LIVE VERSIONS DIFFERENT TO RECORDED PRE RELEASE DATE AND 
ARE DIFFRENT TO STUDIO - VERSION 4 IS CORRECT TO THE STUDIO RECORDING***

I have transcribed this from various youtube videos so there are some problems
parts and some parts may have been improvised or different on the upcoming album. I
most of
is correct or if i was unsure i have put more possibillities down. The rhythm by Kele in
is more or less unhearable on Youtube, so i have put the chords that the
implies.

If you have any suggestions or questions don't hesitate to email me at oli_turtle@hotmail.com

*also sorry f there are any allignment problems i shall try to update once it is
as i have written this using a mac which hasn't previously translated correctly positionly.

Intro - either digging down on the strings muted, fast harmonics/ artificial harmonics
more likely a wild effect pedal, or even a combination of all of them! Very hard to
here so i won't bother andwill leave that part to your imagination.

-MAIN RIFF- VERSE 1

(EASY WAY)

E--------------------------------------------|
A--------------------------------------------|
D-------------------11-11-------12-12--------|
G-11---11------------------------------------|
B----10----------10--------9-10--------9-10--|
E----------11-10-----------------------------|

E-------------------------------------------|
A-------------------12-12-------------------|
D-------------------------------------------|
G-11---11-----------------------9-9---------|
B----10--------------------9-10------10-12--|
E----------12-10-9--------------------------|

(EXTRA SPIKEY/ TWANGY WAY)

E------------------------------------|
A------------------------------------|
D------------------------------------|
G-11---11----------------------------|
B----10---------10-2-2------3-3------|
E----------10-9---------4-5------4-5-|

E-----------------------------------|
A-----------------------------------|
D-----------------------------------|
G-11---11---------------------------|
B----10------------3-3-----5-5------|
E----------12-10-9-----4-5-----5-7--|

SECOND HALF OF VERSE RHYTHM COMES IN

  Gb5                             Db5     D5
E---------------------------------|
A--9--9---9--9--9--4-4-4--5-5-5---|
D-11-11--11-11-11--6-6-6--7-7-7---|
G-11-11--11-11-11--6-6-6--7-7-7---|
B---------------------------------|
E---------------------------------|

  Gb5                             D5       E5
E---------------------------------|
A--9--9---9--9--9--5-5-5--7-7-7---|
D-11-11--11-11-11--7-7-7--9-9-9---|
G-11-11--11-11-11--7-7-7--9-9-9---|
B---------------------------------|
E---------------------------------|

  Gb5                             Db5     D5
E---------------------------------|
A--9--9---9--9--9--4-4-4--5-5-5---|
D-11-11--11-11-11--6-6-6--7-7-7---|
G-11-11--11-11-11--6-6-6--7-7-7---|
B---------------------------------|
E---------------------------------|

HERE THE LEAD CHANGES

E---------------------------------------|
A---------------------------------------|
D--------------------------12-----------|
G-11-11--------------14-------------13--|
B-----------12-15-14----12----15-14-----|
E--------12-----------------------------|

AS DOES THE RHYTHM

   E5       B5        Db5
E-----------------|
A-7-7--2-2-2--4---|
D-9-9--4-4-4--6---|
G-9-9--4-4-4--6---|
B-----------------|
E-----------------|

CHORUS: SOUNDS VERY DISTORTED ON VERSIONS I'VE HEARD BUT THE RHYTHM IS JUST PLAYING THE
AND LEAD IS STILL SOLOING

   D5                           B5                          Gb5
             A5
                                                               (May play with root note
4th Fret E String

E-----------------------------------------------------------------------------|
A-5-5-5-5-5-5-5-5-2-2-2-2-2-2-2-2--9--9- -9--9--9--9--9--9-0-0-0-0-0-0-0-0----|
D-7-7-7-7-7-7-7-7-4-4-4-4-4-4-4-4-11-11-11-11-11-11-11-11-2-2-2-2-2-2-2-2-----|
G-7-7-7-7-7-7-7-7-4-4-4-4-4-4-4-4-11-11-11-11-11-11-11-11-2-2-2-2-2-2-2-2-----|
B-----------------------------------------------------------------------------|
E-----------------------------------------------------------------------------|

REALLY BAD QUALITY BUT NOW I THINK I CAN JUST ABOUT HEAR THE FOLLOWING FROM THE LEAD

                                                                     Fsharpm9 (I think)
E---------------------------------------------------------------------|
A-------------------------------------9-9-9-9-9-9-9-9-9-9-9-9--9-9----|
D-------------------------------------7-7-7-7-7-7-7-7-7-7-7-7--7-7----|
G-9-9-9-9-9-9-9-9-9-9-9-9-9-9--9--9--9-9-9-9-9-9-9-9-9-9-9-9--9-9-----|
B-7-7-7-7-7-7-7-7-7-7-7-7-9-9-10-10--9-9-9-9-9-9-9-9-9-9-9-9-10-9-----|
E---------------------------------------------------------------------|

I may be wrong and the chord could be an Fsharpmadd9 like in Forget Her by Jeff Buckley.

Fsharpm add9

E--
A-9
D-7
G-6
B-9
E--

Then after repeating this two times it goes changes

~=tremelo picking i.e play same note very fast jonny greenwood style. This part may be
with unison bends but i don't think so, so i'll leave that up to you.

E--------------------------------------|
A----------9---------------------------|
D----------7---------------------------|
G----------9----------4----------------| 4~~~~~~~~~~~  etc.
B-7~9~ 10~ 9--7~9~10~------------------|
E--------------------------------------|

Then the cool solo

RIFF
E-4-4-5-5-7-7-5-5-4-4-5-5-7-7--| x4
A------------------------------|
D------------------------------|
G------------------------------|
B------------------------------|
E------------------------------|

LEAD-A bit like an elephant


E---------------------------------------|
A---------------------------------------|
D---------------------------------------|
G---------------------------------------|
B---------------------------------------|
E-12b14r12--14b15r14-15b17r15-14b15r14--| x2

Then back into verse and then chorus again.

Then it ends with the crazy noise.
comments
We did not receive enough feedback on this tab! Please rate:
print report bad tab
1 2 3 4 5
2 comments total.
0 reply
Nightmare_xxx wrote on January 25 2007, 09:43 am

why are the strings the wrong way round?

0 reply
Manus Celer Dei wrote on December 17 2007, 05:19 pm

yeah seriously, those strings being the wrong way up is bad for the eyes

I want to post or [tab]
guest
You may want to rate the tab now too:
select rating
Please do not post tabs as comments. Select "correction" instead!