Oops, an error
Loading. Please wait.

I Still Remember Bass Tab

version 1
version 1

Whole song

Interactive

7,883 views 12 this week
4 commentsread comments
1 2 3 4 5
accurate
x 7
add to favorites
launch autoscroll
font size
0
reset
guitar tuner
Tab Pro tools
  • play this tab
  • loop segment
  • change instrument
  • show fretboard
  • metronome
Autoscroll
slow
fast
+/-
esc
set tempo
stop
Contributor
-------------------------------------------------------------------------------
			     I Still Remember - Bloc Party
-------------------------------------------------------------------------------

Tuning: Standard

Intro:
00:13-00:27
G|---------------------------------------------------|
D|---------------------------------------------------|
A|-88888888888888888888888888888888888888888888888---|
E|---------------------------------------------------|

Verse/Main Riff:
00:27-1:22
G|---------------------------------------------------|
D|---------------------------------------------------|
A|-8888-1111-3333-5555-8888888888888888--------------|
E|---------------------------------------------------|

Chorus:
1:22-1:45
G|----------------------------------------------------|
D|----------------------------------------------------|
A|-5555-1111-3333-------------------------------------|   X 8
E|----------------3333--------------------------------|

Bridge:
1:45-1.52
G|-----------------------------------------------------|
D|-----------------------------------------------------|
A|-55555555555555555555555-88888888--------------------|

Verse:
1:52-3:00
G|---------------------------------------------------|
D|---------------------------------------------------|
A|-8888-1111-3333-5555-8888888888888888--------------|
E|---------------------------------------------------|

Chorus:
3:00-3:28
G|----------------------------------------------------|
D|----------------------------------------------------|
A|-5555-1111-3333-------------------------------------|   X 8
E|----------------3333--------------------------------|
			     
Bridge:
3:28-3.33
G|-----------------------------------------------------|
D|-----------------------------------------------------|
A|-55555555555555555555555-88888888--------------------|

Verse:
3:33-4:14
G|---------------------------------------------------|
D|---------------------------------------------------|
A|-8888-1111-3333-5555-8888888888888888--------------|
E|---------------------------------------------------|

End:
4:14-
G|---------------------------------------------------|
D|---------------------------------------------------|
A|-8~---8/(15)~-----8/(15)~--------------------------|
E|---------------------------------------------------|


This is my first full tab. Hope you enjoy. Please Comment
comments
print report bad tab
4 comments total. Showing first comments.
-1 reply
Tacoman360 wrote on April 19 2007, 11:18 am

The chorus should be:

Chorus:
1:22-1:45
G|----------------------------------------------------|
D|----------------------------------------------------|
A|-5555-1111---------00-------------------------------| X 8
E|-----------0000-22----------------------------------|

Other than that good tab :D

0 reply
suits_you wrote on April 19 2007, 11:23 am

Thanks for the tip, i gave it a listen and your probably right.

+1 reply
dogsmack wrote on September 3 2007, 05:27 pm

nono, the chorus should be:

Chorus:
1:22-1:45
G|--------------------------------------------------|
D|--------------------------------------------------|
A|-5555-1111----------------------------------------| X 8
E|-----------1111-33-55-----------------------------|

that's right ! ;)

great tab!

I want to post or [tab]
guest
You may want to rate the tab now too:
select rating
Please do not post tabs as comments. Select "correction" instead!