Oops, an error
Loading. Please wait.

Ion Square Bass Tab

version 1
version 1

Whole song

2,967 views 1 this week
6 commentsread comments
1 2 3 4 5
x 4
add to favorites
launch autoscroll
font size
0
reset
guitar tuner
Autoscroll
slow
fast
+/-
esc
set tempo
stop
Help us to improve Ultimate-Guitar.com Take our survey!
×
Author
VERSE Repeat this until 2:17
G|------------------------------------|
D|------------------------------------|
A|-8~---10-8~----10~--5~---7~--5~--7~-|
E|------------------------------------|

CHORUS I carry your heart... (x4) until 2:40
G|---------------------------------------------|
D|---------------------------------------------|
A|-88888888-1010101010101010----------77777777-|
E|---------------------------88888888----------|

VERSE Repeat this until 4:20
G|------------------------------------|
D|------------------------------------|
A|-8~---10-8~----10~--5~---7~--5~--7~-|
E|------------------------------------|

CHORUS I carry your heart... (x4) until 4:43
G|---------------|
D|---------------|
A|-8~-10~---7~-7-|
E|--------8~-----|

4:43 - 5:10
G|-----------------------------------------------------|
D|-----------------------------------------------------|
A|-88888888-1010101010101010----------1212121212121212-|
E|---------------------------88888888------------------|

G|---------------------------------------------|
D|---------------------------------------------|
A|-88888888-1010101010101010----------77777777-|
E|---------------------------88888888----------|

G|-----------------------------------------------------|
D|-----------------------------------------------------|
A|-88888888-1010101010101010----------1212121212121212-|
E|---------------------------88888888------------------|

G|---------------------------------------------|
D|---------------------------------------------|
A|-88888888-1010101010101010-77777777-77777777-|
E|---------------------------------------------|

5:10 - 5:35
G|---------------|
D|---------------|
A|-1212-88-77----|
E|------------88-|
Suggest correction
comments
print report bad tab
6 comments total. Showing first comments.
+4 reply
lauriehumphrey 31 Aug 29, 2008 09:21 AM

nice tab but i think you got a note wrong. perhaps should be a 2 instead of a 3?

Repeat this
G|----------------------------|
D|-3~---5-3~---5~-----2----2~-|
A|-----------------5~----5~---|
E|----------------------------|

+2 reply
rko 2,127 Aug 29, 2008 11:20 AM

Hey yeah thanks i'll change it! Gonna change chorus as well because I have new better headphones and can hear bass better

+1 reply
patch17 3,367 Sep 15, 2008 01:06 PM

I think sometimes the verse is played lower, like this....
G|------------------------------|
D|------------------------------|
A|-------------5-------5--------|
E|1---3-1----3-------0---------0|

guest
You may want to rate the tab now too:
select rating
Wanna post a correction for this tab? Suggest correction