Oops, an error
Loading. Please wait.

Ion Square tab

version 4
version 4

Whole song

145 views 1 this week
no commentswrite comment
1 2 3 4 5
3 more votes to show rating
add to favorites
×
Save as Personal and add changes to this tab that will be seen only by you. Learn more ›
×
You can save this tab as Personal to edit and correct it or add notes. All changes will be seen only by you. Learn more »
launch autoscroll
font size
0
reset
how to read this tab
guitar tuner
edit
Autoscroll
slow
fast
+/-
esc
set tempo
stop
-----------------------------------------------------------------
                     Bloc Party - Ion Square                     
-----------------------------------------------------------------

(1.27)

Guitar 1:

e|----------------------------------------------------------------------------------|
B|----------------------------------------------------------------------------------|
G|----------------------------------------------------------------------------------|
D|--3-3--3-3--3-3--3-3--3-3--3-3--3-3--3-3--0-0--0-0--0-0--0-0--0-0--0-0--0-0--0-0--|
A|----------------------------------------------------------------------------------|
E|----------------------------------------------------------------------------------|

e|----------------------------------------------------------------------------------|
B|----------------------------------------------------------------------------------|
G|----------------------------------------------------------------------------------|
D|--3-3--3-3--3-3--3-3--3-3--3-3--3-3--2-2--0-0--0-0--0-0--0-0--0-0--0-0--0-0--0-0--|
A|----------------------------------------------------------------------------------|
E|----------------------------------------------------------------------------------|

e|----------------------------------------------------------------------------------|
B|----------------------------------------------------------------------------------|
G|----------------------------------------------------------------------------------|
D|--3-3--3-3--3-3--3-3--3-3--3-3--3-3--5-5--0-0--0-0--0-0--0-0--0-0--0-0--0-0--2-2--|
A|----------------------------------------------------------------------------------|
E|----------------------------------------------------------------------------------|

e|----------------------------------------------------------------------------------|
B|----------------------------------------------------------------------------------|
G|----------------------------------------------------------------------------------|
D|--3-3--3-3--3-3--3-3--3-3--3-3--3-3--3-3--0-0--0-0--0-0--0-0--0-0--0-0--0-0--0-0--|
A|----------------------------------------------------------------------------------|
E|----------------------------------------------------------------------------------|

-------------------------------------------------------------------------------------------------------------

(2:17)

Guitar 2:

e|----------------------------------------------------------------|
B|----------------------------------------------------------------|
G|--10--10--10--10--12--12--14--14--10--10--10--10--12--12--9--9--|
D|----------------------------------------------------------------|
A|----------------------------------------------------------------|
E|----------------------------------------------------------------|

e|----------------------------------------------------------------|
B|----------------------------------------------------------------|
G|--10--10--10--10--12--12--14--14--10--10--10--10--5--5--5--5----|
D|----------------------------------------------------------------|
A|----------------------------------------------------------------|
E|----------------------------------------------------------------|

-------------------------------------------------------------------------------------------------------------

(2:41)

Guitar 1:

e|----------------------------------------------------------------------------------|
B|----------------------------------------------------------------------------------|
G|----------------------------------------------------------------------------------|
D|--3-3--3-3--3-3--3-3--5-5--5-5--7-7--7-7--0-0--0-0--0-0--0-0--0-0--0-0--0-0-------|
A|-----------------------------------------------------------------------------3-3--|
E|----------------------------------------------------------------------------------|
                                                                                        PLAY TWICE
e|----------------------------------------------------------------------------------|
B|----------------------------------------------------------------------------------|
G|----------------------------------------------------------------------------------|
D|--3-3--3-3--3-3--3-3--5-5--5-5--8-8--7-7--0-0--0-0--0-0--0-0--0-0--0-0--3-3--2-2--|
A|----------------------------------------------------------------------------------|
E|----------------------------------------------------------------------------------|


e|----------------------------------------------------------------------------------|
B|----------------------------------------------------------------------------------|
G|----------------------------------------------------------------------------------|
D|--3-3--3-3--3-3--3-3--3-3--3-3--3-3--3-3--0-0--0-0--0-0--0-0--0-0--0-0--0-0--0-0--|
A|----------------------------------------------------------------------------------|
E|----------------------------------------------------------------------------------|

e|----------------------------------------------------------------------------------|
B|----------------------------------------------------------------------------------|
G|----------------------------------------------------------------------------------|
D|--3-3--3-3--3-3--3-3--3-3--3-3--3-3--2-2--0-0--0-0--0-0--0-0--0-0--0-0--0-0--0-0--|
A|----------------------------------------------------------------------------------|
E|----------------------------------------------------------------------------------|

e|----------------------------------------------------------------------------------|
B|----------------------------------------------------------------------------------|
G|----------------------------------------------------------------------------------|
D|--3-3--3-3--3-3--3-3--3-3--3-3--3-3--5-5--0-0--0-0--0-0--0-0--0-0--0-0--0-0--2-2--|
A|----------------------------------------------------------------------------------|
E|----------------------------------------------------------------------------------|

e|----------------------------------------------------------------------------------|
B|----------------------------------------------------------------------------------|
G|----------------------------------------------------------------------------------|
D|--3-3--3-3--3-3--3-3--3-3--3-3--3-3--3-3--0-0--0-0--0-0--0-0--0-0--0-0--0-0--0-0--|
A|----------------------------------------------------------------------------------|
E|----------------------------------------------------------------------------------|


Guitar 2:

e|---------------------------------------------------------------------|
B|---------------------------------------------------------------------|
G|--10--10--10--10--10--10--10--10-------------------------------------|
D|----10--10--10--10--10--10--10--10-10--10--10--10--10--10--10--10----|
A|-------------------------------------12--12--12--12--12--12--12--12--|
E|---------------------------------------------------------------------|

e|---------------------------------------------------------------------|
B|---------------------------------------------------------------------|
G|--10--10--10--10--10--10--10--10-------------------------------------|
D|----10--10--10--10--10--10--10--10-10--10--10--10--10--10--10--10----|
A|-------------------------------------12--12--12--12--12--12--12--12--|
E|---------------------------------------------------------------------|
                                                                          PLAY THROUGH AND REPEAT ONCE
e|---------------------------------------------------------------------|
B|--10--10--10--10--10--10--10--10--10--10--10--10--11--11--10--8------|
G|----10--10--10--10--10--10--10--10--10--10--10--10--10--10--10-10----|
D|---------------------------------------------------------------------|
A|---------------------------------------------------------------------|
E|---------------------------------------------------------------------|

e|---------------------------------------------------------------------|
B|--10--10--10--10--11--11--10--8--10--10--10--10--11--11--13--13------|
G|----10--10--10--10--10--10--10-10--10--10--10--10--10--10--10--10----|
D|---------------------------------------------------------------------|
A|---------------------------------------------------------------------|
E|---------------------------------------------------------------------|

-------------------------------------------------------------------------------------------------------------

(4:19)

Guitar 1:

e|------------------------------------------------------------------------------------------------------|
B|------------------------------------------------------------------------------------------------------|
G|--------------10-10-9-9--------------10-10-9-9--10-10-15-15-14-14-10-10--10-10-15-15-14-14-17-17------|
D|--10-10-10-10------------10-10-10-10------------------------------------------------------------------|
A|------------------------------------------------------------------------------------------------------|
E|------------------------------------------------------------------------------------------------------|

e|------------------|------------------|------------------|------------------|------------------|-----------|
B|------------------|------------------|------------------|------------------|------------------|-----------|
G|-17---------------|-17-15-14---------|-17-15-14---------|-17-15-14---------|-17---------------|-17--------|
D|----15-17-15-(x7)-|----------17-(x1)-|----------17-(x4)-|----------17-(x1)-|----15-17-15-(x2)-|---15-(x4)-|
A|------------------|------------------|------------------|------------------|------------------|-----------|
E|------------------|------------------|------------------|------------------|------------------|-----------|

e|------------------------------------------------------------------|
B|--18-18-18--------18-18-18--------18-18-18-------18-18-18-20-22---|
G|-----------19-17-----------19-17-----------19-17------------------|
D|------------------------------------------------------------------|
A|------------------------------------------------------------------|
E|------------------------------------------------------------------|

e|-----------------------------------------------------------------------------------|
B|--18--18--18--17--18--18--18--20-22--18--18--18--20--18--18--18--18-20-22-18-18----|
G|----17--17--17--17--17--17--17---------17--17--17--17--17--17--17------------------|
D|-----------------------------------------------------------------------------------|
A|-----------------------------------------------------------------------------------|
E|-----------------------------------------------------------------------------------|


Guitar 2:

e|------6-8-----6-8-----6-8-----6-8-----6-8-----6-8-----6-8------|
B|--6-8-----6-8-----6-8-----6-8-----6-8-----6-8-----6-8-----6-8--|
G|---------------------------------------------------------------|
D|---------------------------------------------------------------|   x2
A|---------------------------------------------------------------|
E|---------------------------------------------------------------|

e|--8-6------8-6------8-6------8-6------8-6------8-6------8-6------8-6-------|
B|------10-8-----10-8-----10-8-----10-8-----10-8-----10-8-----10-8-----10-8--|
G|---------------------------------------------------------------------------|
D|---------------------------------------------------------------------------|   x2
A|---------------------------------------------------------------------------|
E|---------------------------------------------------------------------------|

e|--13-12-------13-12-------13-12-------13-12-------13-12-------13-12-------13-12-------13-12--------|
B|--------15-13-------15-13-------15-13-------15-13-------15-13-------15-13-------15-13-------15-13--|
G|---------------------------------------------------------------------------------------------------|
D|---------------------------------------------------------------------------------------------------|
A|---------------------------------------------------------------------------------------------------|
E|---------------------------------------------------------------------------------------------------|

e|--------12-13-------12-13-------13-12-------13-12-------13-12-------13-12-------13-12-------13-12--|
B|--13-15-------13-15-------13-15-------13-15-------13-15-------13-15-------13-15-------13-15--------|
G|---------------------------------------------------------------------------------------------------|
D|---------------------------------------------------------------------------------------------------|
A|---------------------------------------------------------------------------------------------------|
E|---------------------------------------------------------------------------------------------------|

e|--------12-15-------12-15-------12-15-------12-15-------12-15-------12-15-------12-15-------12-15--|
B|--13-15-------13-15-------13-15-------13-15-------13-15-------13-15-------13-15-------13-15--------|
G|---------------------------------------------------------------------------------------------------|
D|---------------------------------------------------------------------------------------------------|
A|---------------------------------------------------------------------------------------------------|
E|---------------------------------------------------------------------------------------------------|

e|--------12-13-------12-13-------12-13-------12-13-------12-13-------12-13-------12-13-------12-13--|
B|--13-15-------13-15-------13-15-------13-15-------13-15-------13-15-------13-15-------13-15--------|
G|---------------------------------------------------------------------------------------------------|
D|---------------------------------------------------------------------------------------------------|
A|---------------------------------------------------------------------------------------------------|
E|---------------------------------------------------------------------------------------------------|

e|--13----15----17----15----13----15----12----13--------|
B|-----13----13----13----13----13----13----13----13-----|
G|------------------------------------------------------|
D|------------------------------------------------------|   x4
A|------------------------------------------------------|
E|------------------------------------------------------|

e|---------------------------------------------------------------------------------------------------|
B|---------------------------------------------------------------------------------------------------|
G|-----------12----------12-------12-10-9-7-----------------12----------12----------12-10-9-7--------|
D|--10-12-14----10-12-14----10-12-----------10-12--10-12-14----10-12-14----10-12-14-----------10-----|
A|---------------------------------------------------------------------------------------------------|
E|---------------------------------------------------------------------------------------------------|

e|-----------------------------------------------------------------------------------------------------|
B|-----------------------------------------------------------------------------------------------------|
G|-----------12----------12-------12-10-9-7--------------14-15-------14-15-------14-15-15-14-12-14-10~-|
D|--10-12-14----10-12-14----10-12-----------10-12--15-17-------15-17-------15-17-----------------------|
A|-----------------------------------------------------------------------------------------------------|
E|-----------------------------------------------------------------------------------------------------|
Suggest correction
Creating personal tab
Creating personal tab
You can edit any tab online and save it as your Personal.

You can edit, replace or remove any tab part or add personal notes – all changes will be seen only by you.

Personal tabs can be accessed anytime from any device, even offline.
Learn more »
Give kudos to tab author, rate the tab!
1 2 3 4 5
comments
print report bad tab
guest
You may want to rate the tab now too:
select rating
Wanna post a correction for this tab? Suggest correction