Oops, an error
Loading. Please wait.

Kreuzberg Tab

version 2
version 2

Whole song

Interactive

4,189 views 9 this week
no commentswrite comment
1 2 3 4 5
accurate
x 1
add to favorites
launch autoscroll
font size
0
reset
how to read this tab
guitar tuner
Tab Pro tools
  • play this tab
  • loop segment
  • change instrument
  • show fretboard
  • metronome
Autoscroll
slow
fast
+/-
esc
set tempo
stop
Contributor
Difficulty
intermediate
Kreuzberg
Bloc Party
A Weekend In The City

Tabbed By: Jose Reyes (arnoldo_r@hotmail.com)

This is my take on the tabs for this song. I think Comments and corrections are always welcomed.


Intro
-----

E|---3---------3---------3---------3---------|
B|-------1---------1---------1---------1-----|
G|-----2---2-----2---2-----2---2-----2---2---|
D|-------------------------------------------|	x 2
A|-------------------------------------------|
E|-------------------------------------------|

Intro/Verse
-----------

Play

E|---3---------3----------3---------3----------3---------3----------------------------|
B|-------1---------1----------1---------1----------1---------1------3---------5-------|
G|-----2---2-----2---2---------------------------2---2-----2---2--------0---------0---|
D|--------------------------3---3-----3---3---------------------------3---3-----3-----|
A|------------------------------------------------------------------------------------|
E|------------------------------------------------------------------------------------|
            											x 3
E|---3---------3-----------3---------3----------3---------3---------3---------3-------|
B|-------1---------1-----------0---------0----------1--------1----------0---------0---|
G|---------------------------0---0-----0---0--------------------------0---0-----0---0-|
D|-----3---3-----3---3----------------------------3---3----3---3----------------------|
A|------------------------------------------------------------------------------------|
E|------------------------------------------------------------------------------------|


play this variation of the verse riff once

E|---3---------3----------3---------3----------3---------3----------------------------|
B|-------1---------1----------1---------1----------1---------1------3---------5-------|
G|-----2---2-----2---2---------------------------2---2-----2---2--------0---------0---|
D|--------------------------3---3-----3---3---------------------------3---3-----3-----|
A|------------------------------------------------------------------------------------|
E|------------------------------------------------------------------------------------|

-
E|---3---------3-----------3---------3----5----3---------3----------------------------|
B|-------1---------1-----------0-------0------------1--------1------8-8-8-8-8-8-8-8---|
G|---------------------------0---0----------------------------------7-7-7-7-7-7-7-7---|
D|-----3---3-----3---3----------------------------3---3----3---3----5-5-5-5-5-5-5-5---|
A|------------------------------------------------------------------------------------|
E|------------------------------------------------------------------------------------|

Chorus
------

e|--------------------------------------------------------------|
B|--------------------------------------------------------------|
G|--10-10-10-10------------------------------------7-7-7-7------|	x 4
D|--10-10-10-10-x2---10-10-10-10------7-7-7-7------7-7-7-7--x2--|
A|--8--8--8--8-------10-10-10-10--x2--7-7-7-7--x2--5-5-5-5------|
E|-------------------8--8--8--8-------5-5-5-5-------------------|

at the same time, other guitar plays this:

e|-12----------------7----------------8-------------------------|
B|-----13---------------8------------------8--------6---5-------|
G|--------------------------------------------------------5-----|
D|--------------------------------------------------------------|
A|--------------------------------------------------------------|
E|--------------------------------------------------------------|

e|-12-------13-------12-------13------12-------13-------12------|
B|-----13----------------13---------------13---------------13---|
G|--------------------------------------------------------------|
D|--------------------------------------------------------------|
A|--------------------------------------------------------------|
E|--------------------------------------------------------------|

2nd Verse	(almost the same as the 1rst, small changes)
---------


E|---3---------3----------3---------3----------3---------3----------------------------|
B|-------1---------1----------1---------1----------1---------1------3---------5-------|
G|-----2---2-----2---2---------------------------2---2-----2---2--------0---------0---|
D|--------------------------3---3-----3---3---------------------------3---3-----3-----|
A|------------------------------------------------------------------------------------|
E|------------------------------------------------------------------------------------|

E|---3---------3-----------3---------3----5-----3---------3---------3---------3-------|
B|-------1---------1-----------0-------0------------1--------1----------0---------0---|
G|---------------------------0---0------------------------------------0---0-----0---0-|
D|-----3---3-----3---3----------------------------3---3----3---3----------------------|
A|------------------------------------------------------------------------------------|
E|------------------------------------------------------------------------------------|

E|---3---------3----------3---------3----------3---------3----------------------------|
B|-------1---------1----------1---------1----------1---------1------3---------5-------|
G|-----2---2-----2---2---------------------------2---2-----2---2--------0---------0---|
D|--------------------------3---3-----3---3---------------------------3---3-----3-----|
A|------------------------------------------------------------------------------------|
E|------------------------------------------------------------------------------------|

-
E|---3---------3-----------3---------3----5----3---------3----------------------------|
B|-------1---------1-----------0-------0------------1--------1------8-8-8-8-8-8-8-8---|
G|---------------------------0---0----------------------------------7-7-7-7-7-7-7-7---|
D|-----3---3-----3---3----------------------------3---3----3---3----5-5-5-5-5-5-5-5---|
A|------------------------------------------------------------------------------------|
E|------------------------------------------------------------------------------------|

Chorus
------


Bridge
------

e|------------------------------------|
B|------------------------------------|
G|--10-10-10-10------12-12-12-12------|
D|--10-10-10-10--x4--12-12-12-12--x4--|	   x2
A|--8--8--8--8-------10-10-10-10------|
E|------------------------------------|

e|---------------------------------------------------------|
B|---------------------------------------------------------|
G|--10-10-10--7-7-7--9-9-9------------------------12-------|
D|--10-10-10--7-7-7--9-9-9--9-9-9--10-10--12-12---12-x16---|  x2
A|--8--8--8---5-5-5--7-7-7--9-9-9--10-10--12-12---10-------|
E|--------------------------7-7-7--8--8---10-10------------|

Outro
-----

After this, play the verse riff about 4 times and jump into the chorus riff
comments
We did not receive enough feedback on this tab! Please rate:
print report bad tab
1 2 3 4 5
I want to post or [tab]
guest
You may want to rate the tab now too:
select rating
Please do not post tabs as comments. Select "correction" instead!