Oops, an error
Loading. Please wait.

Lean Tab

427 views 6 this week
no commentswrite comment
1 2 3 4 5
worth learning
x 1
add to favorites
launch autoscroll
font size
0
reset
how to read this tab
guitar tuner
Tab Pro tools
  • play this tab
  • loop segment
  • change instrument
  • show fretboard
  • metronome
Autoscroll
slow
fast
+/-
esc
set tempo
stop
Difficulty
intermediate
tabbed by Adam Carrington (Glasgow)


Here's Kele's guitar:

Intro

(play these chords as upstrokes)

e-----------------|
b--5--5--5--7-----|
g--6--6--6--7-----|
d--7--7--7--9-----|
a--7--7--7--9-----|
e--5--5--5--7-----|


Verse:


e-----------------------------|
b--5--9--5-------5--9--7------|
g--6--9--6-------6--9--7------|
d--7--9--7-------7--9--9------|
a--7--7--7-------7--7--9------|
e--5-----5-------5------7-----|


Chorus:

e--0--------------------0-----------------|
b--0-----0-----0-------5-----5----5-------|
g--2--2-----2-----2----6--6----6----6-----|
d--4--------------------7-----------------|
a--4--------------------7-----------------|
e--2--------------------5-----------------| repeat

then


e--0--------------------0----------0------0-----0----|
b--0-----0-----0--------0----------5------0-----5----|
g--2--2-----2-----2-----1----------6------2-----6----|
d--4--------------------2----------7------4-----7----|
a--4--------------------2----------7------4-----7----|
e--2--------------------0----------5------2-----5----|


rinse and repeat :)


Russell's guitar:

Verse

repeat this arpeggio til the chorus

e--9------------|
b----10---------|
g--------9------|
d---------------|
a---------------|
e---------------|


Chorus

e------------------------7--7h9--9s12-------12-----12-----12----------|
b---10--9--10--9--10-------------------14------14-----14----14--------|
g---------------------------------------------------------------------|
d---------------------------------------------------------------------|
a---------------------------------------------------------------------|
e---------------------------------------------------------------------|repeat

then:

e----------------------12s14--12---------------------------------------------|
b---9--10--12--10-----------------12--10-9--9h10--9---------0----------------|
g----------------------------------------------------------9----4------------|
d-------------------------------------------------------------7-------7--7---|
a----------------------------------------------------------------------------|
e----------------------------------------------------------------------------|


whistling riffs:

(^ means bend the note up one step)
(^/ means bend and release)

e---11^--10--9------9^--------------------------------------|
b-----------------10------10h12p10--------------------------|
g--------------------------------------9h11p9---------------|
d-----------------------------------------------------------|
a-----------------------------------------------------------|
e-----------------------------------------------------------|



e---------------------------12--9-------------------------------------|
b-----------------------------------12--10--12---14^/-----------------|
g---------9----------11----------------------------------9--11--9-----|
d---9h11----11h14-----------------------------------------------------|
a---------------------------------------------------------------------|
e---------------------------------------------------------------------|
comments
We did not receive enough feedback on this tab! Please rate:
print report bad tab
1 2 3 4 5
I want to post or [tab]
guest
You may want to rate the tab now too:
select rating
Please do not post tabs as comments. Select "correction" instead!