Oops, an error
Loading. Please wait.

Letter To My Son Tab

version 1
version 1

Intro

Whole song

Interactive

608 views 1 this week
no commentswrite comment
1 2 3 4 5
please rate
add to favorites
launch autoscroll
font size
0
reset
how to read this tab
guitar tuner
Autoscroll
slow
fast
+/-
esc
set tempo
stop
Help us to improve Ultimate-Guitar.com Take our survey!
×
Author
This is my First tab and I hope you like it. This is how i play it and it sounds good 
with the recording

Intro
strum all string with hand muting (Listen to the song as you play)
e|-------------------------------------------------|
B|--7-----------10-7-8-7-5-7-3-0-3-5-0-5-3-0-3-5---|
G|------------7------------------------------------|
D|--------7-9--------------------------------------|
A|-------------------------------------------------|
E|-------------------------------------------------|

e|-------------------------------------------------|
B|---------10-7-8-7-5-7-8-8-8-8-8-7-5-7-3----------|
G|-------7-----------------------------------------|
D|---7-9-------------------------------------------|
A|-------------------------------------------------|
E|-------------------------------------------------|
Suggest correction
Give kudos to tab author, rate the tab!
1 2 3 4 5
comments
print report bad tab
guest
You may want to rate the tab now too:
select rating
Please do not post tabs as comments. Select "correction" instead!