Oops, an error
Loading. Please wait.

Letter To My Son Tab

version 2
version 2

Whole song

Interactive

3,969 views 6 this week
no commentswrite comment
1 2 3 4 5
2 more votes to show rating
add to favorites
launch autoscroll
font size
0
reset
how to read this tab
guitar tuner
Autoscroll
slow
fast
+/-
esc
set tempo
stop
Help us to improve Ultimate-Guitar.com Take our survey!
×
Author
-------------------------------------------------------------------------------
                             Letter to my Son - Bloc Party
-------------------------------------------------------------------------------
Tabbed by: seanobazee
Email: seanobazee@gmx.net

Tuning: Standard eBGDAE


e|-----5-2---3-2-0-2-----------------------------5-2---3-2-0---3-3-2-2-0---0-2----|P
B|---------3---------3---3-----3-3---3---3-3---------3-------3-----------3-----3-0|A
G|-2/4-----------------2---4-2-----2---4-----2\4----------------------------------|R
D|--------------------------------------------------------------------------------|T
A|--------------------------------------------------------------------------------|.
E|--------------------------------------------------------------------------------|1

Repeat Part.1

 [At: And you looked so right...]
e|-10(x16)--12(x16)--14(x16)--15(x16)----------------------------------------|
B|---------------------------------------------------------------------------|
G|---------------------------------------------------------------------------|
D|---------------------------------------------------------------------------|
A|---------------------------------------------------------------------------|
E|---------------------------------------------------------------------------|

Repeat Part.1
Repeat Part.1 

 [At: And you looked so wanton...]
e|----------10-9-------------------------10-9--------------------------------|P
B|-------10------10-------10----------10------10------10----10---------------|A
G|------------------9--11----11------------------9-11----11----11------------|R
D|-11-12------------------------11-12----------------------------------------|T
A|---------------------------------------------------------------------------|2
E|---------------------------------------------------------------------------|(1)

e|---------------------------------------------------------------------------|P
B|-12----12----10---10-------------------------------------------------------|A
G|----11----11----9----9-11--------------------------------------------------|R
D|--------------------------12-12-9-7----------------------------------------|T
A|---------------------------------------------------------------------------|2
E|---------------------------------------------------------------------------|(2)

Repeat PART 2



e|---------------------------------------------------------------------------|P
B|---10-------10-9---7-----8-7-----------------------------------------------|A
G|------11-------------7---------7-----7-----7---6-7-9-----------------------|R
D|-9-------12------7-----7-----5---7-5---7-5---7-----------------------------|T
A|---------------------------------------------------------------------------|.
E|---------------------------------------------------------------------------|3

Repeat PART.3
Repeat PART.3
Repeat PART.3

 [At: Forgive me...]
e|-17----------14-14----------------------------10---------------------------|P
B|----12-15-12-------12-12-14----------------10----9-------------------------|A
G|----------------------------14-11-11-12-12---------10----11----------------|R
D|------------------------------------------------------11-------------------|T
A|---------------------------------------------------------------------------|.
E|---------------------------------------------------------------------------|4

Repeat PART.4
Repeat PART.4
Repeat PART.4


e|----------------10---------------------------------------------------------|P
B|-------------10---------------------10-------------------------------------|A
G|-11-11-12-12-------(12)-11-11-12-12----------------------------------------|R
D|---------------------------------------12----------------------------------|T
A|---------------------------------------------------------------------------|.
E|---------------------------------------------------------------------------|5

Repeat PART.5
Repeat PART.5
Repeat PART.5

e|-7-------------------------------------------------------------------------|
B|-7-------------------------------------------------------------------------|
G|-7-------------------------------------------------------------------------|
D|-9-------------------------------------------------------------------------|
A|---------------------------------------------------------------------------|
E|---------------------------------------------------------------------------|


| /  slide up
| \  slide down
| h  hammer-on
| p  pull-off
| ~  vibrato
| +  harmonic
| x  Mute note
===============================================================================
Suggest correction
Give kudos to tab author, rate the tab!
1 2 3 4 5
comments
print report bad tab
guest
You may want to rate the tab now too:
select rating
Wanna post a correction for this tab? Suggest correction