Oops, an error
Loading. Please wait.

Little Thoughts Tab

version 3
version 3

Whole song

Interactive

3,664 views 1 this week
no commentswrite comment
1 2 3 4 5
2 more votes to show rating
add to favorites
launch autoscroll
font size
0
reset
how to read this tab
guitar tuner
×
Best way to learn
"Little Thoughts"
Autoscroll
slow
fast
+/-
esc
set tempo
stop
Author
Difficulty
  follow
intermediate
The two versions of this song already up have some bits correct but are slightly 
off on other parts, hopefully this will be more correct :)

Guitar 1 - Kele Okereke

Intro Part 1
e|-----------------|
B|-----------------|
G|-----------------|
D|9xx9xx9999999999-|
A|7xx7xx7777777777-|
E|-----------------|

Intro Part 2/Verse
e|---------------------------------|
B|---------------------------------|
G|---------------------------------|
D|99999999999999999999999999999999-|
A|7777777777777999xxxxxxxxxxxxxxxx-|
E|----------------9999999999999777-|

Chorus
e|--------------------------------|
B|--------------------------------|
G|--------------------------------|
D|777777766666666-----------------|
A|---------------7777777799999999-|
E|--------------------------------|

Verse 2 is the same as Verse 1

Break - Strum this chord a few times
e|----|
B|----|
G|9~--|
D|9~--|
A|7~--|
E|----|

Then play the verse until it goes back into the chorus

Chorus

Outro
e|------------------------|
B|------------------------|
G|------------------------|
D|7-7-7-7-6-6-------------|
A|------------7-7-7-7-9-9-|
E|------------------------|

Ending
e|-------------|
B|-------------|
G|-------------|
D|7-77-6-6-----|
A|---------7~--|
E|-------------|

Guitar 2 - Russell Lissack

Intro Part 1 - Palm Muted
e|-----------------|
B|-----------------|
G|8xx8xx8888888888-|
D|9xx9xx9999999999-|
A|7777777777777777-|
E|-----------------|

Intro Part 2/Verse 1
e|---------------------------------|
B|---------------------------------|
G|88888888888888888888888888888888-|
D|99999999999999999999999999999999-|
A|77777777777777777777777777777777-|
E|---------------------------------|

Chorus - 10,11,12,16 not 1,0,1,1,1,2,1,6
e|--------------------------------------------------|
B|-----------------------------10/121212------777/9-|
G|----8888--------11111111-9999----------8888-------|
D|9999----------------------------------------------|
A|--------11111111----------------------------------|
E|--------------------------------------------------|

e|---7---777777-----222-222-777-111111-|
B|555-555-777771097-444-444-999-121212-|
G|------------------444-444-888-111111-|
D|-------------------------------------|
A|-------------------------------------|
E|-------------------------------------|

e|-------------------------------------------------------------------|
B|--------------------------1212\55-1212\55-755-1616\1212-9-10bbbbbb-|
G|-------------88--88---898------------------------------------------|
D|99--99---------99--99----------------------------------------------|
A|--77--77-797-------------------------------------------------------|
E|-------------------------------------------------------------------|

Verse 2
e|7-7-7-7-7-7-7-7-7-7-7-7-7-7-|
B|7-7-7-7-7-7-7-7-7-7-7-7-7-7-|
G|8-8-8-8-8-8-8-8-8-8-8-8-8-8-|
D|----------------------------|
A|----------------------------|
E|----------------------------|

Chorus

Break - Come in when Guitar 1 starts playing the verse again
e|----------------------------------------|
B|----------------------------------------|
G|99999999999-1111111-131313131313-141311-|
D|xxxxxxxxxxx-xxxxxxx-xxxxxxxxxxxx-xxxxx--|
A|77777777777-9-9-9-9-111111111111-12119--|
E|----------------------------------------|

e|---------------------------------------|
B|---------------------------------------|
G|99999999999-11111111-6666666666666-444-|
D|xxxxxxxxxxx-xxxxxxxx-xxxxxxxxxxxxx-xxx-|
A|77777777777-9-9-9-9--4444444444444-222-|
E|---------------------------------------|

e|----------------------------------------------|
B|----------------------------------------------|
G|999999999999-11111111-1313131313131313-141311-|
D|xxxxxxxxxxxx-xxxxxxxx-xxxxxxxxxxxxxxxx-xxxxxx-|
A|777777777777-9-9-9-9--1111111111111111-12119--|
E|----------------------------------------------|

e|1212-1212-12-1212-1212-12-1212-1212------------|
B|x-x--x-x--x--x-x--x-x--x--x-x--x-x-------------|
G|9-9--9-9--9--9-9--9-9--9--9-9--9-9--14\13\11\9-|
D|------------------------------------x--x--x--x-|
A|------------------------------------12\11\9-\7-|
E|-----------------------------------------------|

Last Chorus
e|-------------------------|
B|10-9--------10-9------9--|
G|-----9-----------9-11--9-|
D|-------11-9--------------|
A|-------------------------|
E|-------------------------|x3

e|----------------------|
B|10-9------------------|
G|----9-----------------|
D|------11-9-7bbbbbbbbb-|
A|----------------------|
E|----------------------|x1

I'm not so sure on this part as its quite hard to hear exactly what he plays, but 
this is my guess :)

e|-------121212----------------|
B|1414-12------1414-12-----9---|
G|--------------------9-11---9-|
D|-----------------------------|
A|-----------------------------|
E|-----------------------------|x3

e|------------------------|
B|1414-12-----------------|
G|--------9-11-9-11bbbbbb-|
D|------------------------|
A|------------------------|
E|------------------------|x1

Outro - Watch the rhythm on this bit, its kinda fiddly
e|------------------------------|
B|------------------------------|
G|9-9-9-9-8-8-8-6-6-6-6-6-8-8-8-|
D|9-9-9-9-9-9-9-6-6-6-6-6-9-9-9-|
A|7-7-7-7-7-7-7-4-4-4-4-4-6-6-6-|
E|------------------------------|

Ending
e|--------------|
B|--5-----------|
G|6--6----9-----|
D|------9--7~---|
A|--------------|
E|--------------|
Suggest correction
Give kudos to tab author, rate the tab!
1 2 3 4 5
comments
print report bad tab
guest
You may want to rate the tab now too:
select rating
Wanna post a correction for this tab? Suggest correction