Oops, an error
Loading. Please wait.

Once And Future King Bass Tab

version 2
version 2

Whole song

99 views 1 this week
no commentswrite comment
1 2 3 4 5
please rate
add to favorites
launch autoscroll
font size
0
reset
guitar tuner
Autoscroll
slow
fast
+/-
esc
set tempo
stop
Help us to improve Ultimate-Guitar.com Take our survey!
×
Author
Difficulty
(0:02) x1
G|----------------|--------------------|----------------|----------------|
D|------------7-7-|6-6-----12-12-11-11-|----------------|----------------|
A|9-9-7-7---------|--------------------|9-9-7-7-----9-9-|7-7-------------|
E|----------------|--------------------|----------------|--------7-7-9-9-|

G|----------------|--------------------|----------------|----------------|
D|------------7-7-|6-6-----12-12-11-11-|----------------|----------------|
A|9-9-7-7---------|--------------------|9-9-7-7-----9-9-|----------------|
E|----------------|--------------------|----------------|----------------|



(0:14) x1
G|----------------|--------------------|----------------|----------------|
D|------------7-7-|6-6-----12-12-11-11-|----------------|----------------|
A|9-9-7-7---------|--------------------|9-9-7-7-----9-9-|7-7-------------|
E|----------------|--------------------|----------------|--------7-7-9-9-|

G|----------------|--------------------|----------------|----------------|
D|------------7-7-|6-6-----12-12-11-11-|----------------|----------------|
A|9-9-7-7---------|--------------------|9-9-7-7-----9-9-|7\\-------------|
E|----------------|--------------------|----------------|----------------|

G|----------------|--------------------|----------------|----------------|
D|------------7-7-|6-6-----12-12-11-11-|----------------|----------------|
A|9-9-7-7---------|--------------------|9-9-7-7-----9-9-|7-7-------------|
E|----------------|--------------------|----------------|--------7-7-9-9-|

G|----------------|--------------------|----------------|----------------|
D|------------7-7-|6-6-----12-12-11-11-|----------------|----------------|
A|9-9-7-7---------|--------------------|9-9-7-7-----9-9-|----------------|
E|----------------|--------------------|----------------|----------------|



(0:36) x2
G|----------------|----------------|----------------|----------------|
D|----6-6-7-7-----|----------------|----6-6-7-7-----|--------6-6-7-7-|
A|9-9---------0-0-|7-7-0-0-5-5-4-4-|9-9---------0-0-|7-7-0-0---------|
E|----------------|----------------|----------------|----------------|



(0:48)
G|----------------|----------------|----------------|----------------|
D|----------------|----------------|----------------|----------------|
A|9\----------9\--|--------9\------|----------------|----------------|
E|----2---2-------|2---2-------2---|5-5-5-5-5-5-5-5-|7-7-7-7-7-7-7-7-|x3

G|----------------|----------------|----------------|----------------|
D|----------------|----------------|----------------|----------------|
A|4-4-4-4-4-4-4-4-|4-4-4-4-4-4-4-4-|5-5-5-5-5-5-5-5-|7-7-7-7-7-7-7-7-|
E|----------------|----------------|----------------|----------------|x1



(1:12) x1
G|----------------|--------------------|----------------|----------------|
D|------------7-7-|6-6-----12-12-11-11-|----------------|----------------|
A|9-9-7-7---------|--------------------|9-9-7-7-----9-9-|7-7-------------|
E|----------------|--------------------|----------------|--------7-7-9-9-|

G|----------------|--------------------|----------------|----------------|
D|------------7-7-|6-6-----12-12-11-11-|----------------|----------------|
A|9-9-7-7---------|--------------------|9-9-7-7-----9-9-|----------------|
E|----------------|--------------------|----------------|----------------|

G|----------------|--------------------|----------------|----------------|
D|------------7-7-|6-6-----12-12-11-11-|----------------|----------------|
A|9-9-7-7---------|--------------------|9-9-7-7-----9-9-|7-7-------------|
E|----------------|--------------------|----------------|--------7-7-9-9-|

G|----------------|--------------------|----------------|----------------|
D|------------7-7-|6-6-----12-12-11-11-|----------------|----------------|
A|9-9-7-7---------|--------------------|9-9-7-7-----9-9-|7\\-------------|
E|----------------|--------------------|----------------|----------------|



(1:34)
G|----------------|----------------|----------------|----------------|
D|----6-6-7-7-----|----------------|----6-6-7-7-----|--------6-6-7-7-|
A|9-9---------0-0-|7-7-0-0-5-5-4-4-|9-9---------0-0-|7-7-0-0---------|
E|----------------|----------------|----------------|----------------|x2



(1:46)
G|----------------|----------------|----------------|----------------|
D|----------------|----------------|----------------|----------------|
A|9\----------9\--|--------9\------|----------------|----------------|
E|----2---2-------|2---2-------2---|5-5-5-5-5-5-5-5-|7-7-7-7-7-7-7-7-|x3

G|----------------|----------------|----------------|----------------|
D|----------------|----------------|----------------|----------------|
A|4-4-4-4-4-4-4-4-|4-4-4-4-4-4-4-4-|5-5-5-5-5-5-5-5-|7-7-7-7-7-7-7-7-|
E|----------------|----------------|----------------|----------------|x1



(2:08)
G|----------------|----------------|----------------|----------------|
D|----------------|----------------|----------------|----------------|
A|9-9-9-9-9-9-9-9-|9-9-9-9-9-9-9-9-|9-9-9-9-9-9-9-9-|9-9-9-9-9-9-9-9-|
E|----------------|----------------|----------------|----------------|x1

G|----------------|--------------------|----------------|----------------|
D|------------7-7-|6-6-----12-12-11-11-|----------------|----------------|
A|9-9-7-7---------|--------------------|9-9-7-7-----9-9-|7-7-------------|
E|----------------|--------------------|----------------|--------7-7-9-9-|x4

G|----------------|----------------|----------------|----------------|
D|----------------|----------------|----------------|----------------|
A|9\\\------------|----------------|----------------|----------------|
E|----------------|----------------|----------------|----------------|x1



(2:48)
G|----------------|----------------|----------------|----------------|
D|----6-6-7-7-----|----------------|----6-6-7-7-----|--------6-6-7-7-|
A|9-9---------0-0-|7-7-0-0-5-5-4-4-|9-9---------0-0-|7-7-0-0---------|
E|----------------|----------------|----------------|----------------|x2



(3:00)
G|----------------|----------------|----------------|----------------|
D|----------------|----------------|----------------|----------------|
A|9-9-9-9-9-9-9-9-|9-9-9-9-9-9\4-4/|5-5-5-5-5-5-5-5\|2-2-2-2-2-2-2-2/|
E|----------------|----------------|----------------|----------------|

G|----------------|----------------|----------------|----------------|
D|----------------|----------------|----------------|----------------|
A|4-4-4-4---------|----------------|5-5-5-5-5-5-5-5\|2-2-2-2-2-2-2-2/|
E|--------2-2-2-2-|2-2-2-2-2-2-2-2-|----------------|----------------|

End on:
G|----------------|
D|----------------|
A|9~--------------|
E|----------------|
Suggest correction
Give kudos to tab author, rate the tab!
1 2 3 4 5
comments
print report bad tab
guest
You may want to rate the tab now too:
select rating
Wanna post a correction for this tab? Suggest correction