Oops, an error
Loading. Please wait.

One Month Off Tab

version 1
version 1

Intro

Whole song

Interactive

6,842 views 1 this week
2 commentsread comments
1 2 3 4 5
worth learning
x 8
add to favorites
launch autoscroll
font size
0
reset
how to read this tab
guitar tuner
Autoscroll
slow
fast
+/-
esc
set tempo
stop
Help us to improve Ultimate-Guitar.com Take our survey!
×
Contributor
Difficulty
novice
i'll do the rest of the song soon.

First time round.
------------------------------------------------------|
------------------------------------------------------|
------------------------------------------------------|
------------------------------------------------------|
-7------15-----12----10-------------------------------|
-5------13-----10-----8-------------------------------|

second time.

-------------------------------------------------------|
-------------------------------------------------------|
-------------------------------------------------------|
-------------------------------------------------------|
-7------15-----12----10----------12--------------------|
-5------13-----10-----8----------10--------------------|

alternate way.


------------------------------------------------------|
------------------------------------------------------|
------------------------------------------------------|
------10----7---5--7----------------------------------|
-7-----8----5---3--5----------------------------------|
-5----------------------------------------------------|
CHORUS :)

-------------------------------------------------------|
-------------------------------------------------------|
-------------------------------------------------------|
---------------10--------------------------------------|
-7------10-----8----10---------------------------------|
-5-------8-----------8---------------------------------|

fourth time

----------------------------------------------------------|
----------------------------------------------------------|
----------------------------------------------------------|
---------------10----------------7------------------------|
-7------10-----8----10-----------5------------------------|
-5-------8-----------8------------------------------------|
comments
print report bad tab
2 comments total.
0 reply
kingofli-on 101 wrote on September 3 2008, 04:17 am

i have noticed that the alternative way of playing the verse is the correct way...

+2 reply
patch17 3,091 wrote on September 8 2008, 02:41 pm

Pretty accurate, but I play the verse
e|--------------|--------------|
B|--------------|On second time|
G|--------------|--------------|
D|----10-9--1010|77------------|
A|77--8--7--1010|55------------|
E|55--------8-8-|--------------|
Would be nice to see the solo as well, so I'll give you 4 stars

I want to post or [tab]
guest
You may want to rate the tab now too:
select rating
Please do not post tabs as comments. Select "correction" instead!