Oops, an error
Loading. Please wait.

One Month Off Tab

version 1
version 1

Whole song

Interactive

21,212 views 15 this week
6 commentsread comments
1 2 3 4 5
accurate
x 9
add to favorites
launch autoscroll
font size
0
reset
how to read this tab
guitar tuner
Autoscroll
slow
fast
+/-
esc
set tempo
stop
Help us to improve Ultimate-Guitar.com Take our survey!
×
Author
Difficulty
intermediate
Intro/Verse
e|-----------------|
B|-----------------|
G|-----109------(7)|
D|77---109-1010-(7)|
A|77---8-7-1010-(5)|
E|55-------8-8-----|
Play notes in brackets every other time


Chorus (Kele)
e|--------------------|on last|
B|--------------------|time---|
G|----------1010------|7~-----|
D|77--1010--1010--1010|7~-----|
A|77--1010--8-8---1010|5~-----|
E|55--8-8---------8-8-|-------|

Chorus (Russell)
e|---------------|
B|88--56--65-----|
G|77--55--55--75-|
D|------------55-|
A|---------------|
E|---------------|

Verse 2
Kele plays intro riff.
Russell uses a KAOS Pad or something like that
but if you dont have one, tremolo this is the same notes
e|3---------------------/15-------|
B|--------------------------------|
G|--------------------------------|
D|--------------------------------|
A|--------------------------------|
E|--------------------------------|

In the "stuck on a dream.." part, the parts change to...
Russell:
e|------------------------------|
B|8-------8-------8------8------|
G|---10------10------9------9---|
D|-10--10--10--10--10-10--10-10-|
A|------------------------------|
E|------------------------------|x2

e|-----------------------------------|
B|8-------8--------12-------12-------|
G|---10------10--------12-------12---|
D|-10--10--10--10----12--12---12--12-|
A|-----------------------------------|
E|-----------------------------------|

Kele
e|------------------------------------|
B|------------------------------------|
G|10~---------9~----------10~-------9-|
D|10~---10~---9~----7~----10~----10-9-|
A|8~----10~---7~----7~----8~-----10-7-|
E|------8~----------5~-----------8----|

"If you need time"
Kele
e|-----------------------------------------------------------|
B|-----------------------------------------------------------|
G|----------1010------------1010------------1212--------1010-|
D|77--1010--1010--77--1010--1010--77--1010--1212--1212--1010-|
A|77--1010--8-8---77--1010--8-8---77--1010--1010--1212--8-8--|
E|55--8-8---------55--8-8---------55--8-8---------1010-------|

Russell
e|----------------------------------------------|
B|88--56-65--88--56--56--88--66--56--88--55--65-|
G|77--55-55--77--55--55--77--55--55--77--55--55-|
D|----------------------------------------------|
A|----------------------------------------------|
E|----------------------------------------------|

e|87--55-55--87--55--55--87--55--55-1212-1313-1515\|
B|88--56-65--88--56--56--88--66--56-1313-1313-1313-|
G|77--55-55--77--55--55--77--55--55----------------|
D|-------------------------------------------------|
A|-------------------------------------------------|
E|-------------------------------------------------|

Chorus Key-Change
Kele
e|----------------------|-----|
B|----------------------|-----|
G|----------1212--------|9~---|
D|99--1212--1212--1212--|9~---|
A|99--1212--1010--1212--|7~---|
E|77--1010--------1010--|-----|

Russell
e|------------------|
B|1010--78--87------|
G|9-9---77--77--97--|
D|--------------77--|
A|------------------|
E|------------------|

Solo
Kele plays the Key-Change Chorus underneath the solo.

Russell - This is probably wrong but its the closest i could get :)
Notes with a dot above are pinch harmonics
 .   .       . .
e|----------------10~------10-------------------------|
B|-------------8b---12~--------10-8-7-----------------|
G|9b-9b-99---9b-----------------------9-7-9~----7~----|
D|--------9~-------------99--99-----------9~----7~----|
A|----------------------------------------7~----5~----|
E|----------------------------------------------------|

Until the end, both parts
e|--|
B|--|
G|--|
D|99|
A|99|
E|77|x3

e|-----------------------|
B|-----------------------|
G|10-9-8-6---------------|
D|x--x-x-x--------9~-----|
A|8--7-6-4--------9~-----|
E|----------------7~-----|

Thats all. Will try and tab the solo soon, but its a bit of a pain to work out, please 
and comment, if you have know one of the bits I missed out, please correct me.

Cheers!!
Suggest correction
What's this?
You can suggest a correction to this tab. Community and Mods will review your correction and vote to approve or reject it.
comments
print report bad tab
6 comments total. Showing first comments.
0 reply
Indie rocker 53 wrote on April 17 2009, 07:52 pm

Don't know why its 3 stars, cant fault this one. Good work :)

0 reply
patch17 3,094 wrote on April 18 2009, 05:46 am

Cheers mate. I edited it cos it was a bit of when i frist posted it

0 reply
marbig 44 wrote on October 4 2009, 12:58 am

Is that solo coming? =D

guest
You may want to rate the tab now too:
select rating
Please do not post tabs as comments. Select "correction" instead!