Oops, an error
Loading. Please wait.

One More Chance Tab

version 1
version 1

Whole song

Interactive

13,867 views 3 this week
3 commentsread comments
1 2 3 4 5
accurate
x 4
add to favorites
launch autoscroll
font size
0
reset
how to read this tab
guitar tuner
Tab Pro tools
  • play this tab
  • loop segment
  • change instrument
  • show fretboard
  • metronome
×
Best way to learn
"One More Chance"
Autoscroll
slow
fast
+/-
esc
set tempo
stop
Contributor
Difficulty
novice
Bloc Party's New Single, Released 10th August

Piano Riff
This is the best I could do
e|---------1212-5-5-5----|
B|12-13-13-1313-6-6-6-66-|
G|12-14-14------------77-|
D|-----------------------|
A|-----------------------|
E|-----------------------|

Chorus - Tremolo(Play 2 otes for every 1 here)
Both Guitars
e|-------------------------------|
B|-------------------------------|
G|-------------------------------|
D|----------------------55557777-|
A|0000003333555577777777---------|
E|-------------------------------|X2

e|--------------------------------|
B|--------------------------------|
G|--------------------------------|
D|----5555------------5555--------|
A|3333----777777553333----7777777-|
E|--------------------------------|

e|-------------------------|
B|-------------------------|
G|-------------------------|
D|----------------55557777-|
A|0000333355577777---------|
E|-------------------------|

Verse 2 - Tremolo
Russell
e|---------------------------------|
B|---------------------------------|
G|--------444455555----------------|
D|77777777---------7777777---------|
A|------------------------77775555-|
E|---------------------------------|

Kele comes in with
e|----------------------------------|
B|----------------------------------|
G|555555557777999955555555544442222-|
D|----------------------------------|
A|----------------------------------|
E|----------------------------------|

Chorus again

Then Kele continues playing the Chorus
Russell plays this
e|----------------------------------|
B|----------------------------------|
G|----------------------------------|
D|---------------------5------------|
A|0030-030-030-503/5-77-7-55/7-5-32-|
E|----------------------------------|

Piano Break then Chorus

Play Chorus and Russell's Riff until the end

Thats all, should be correct
Personally I love the dancy feel to this song and think 
it carries on well from Intimacy
:)
comments
print report bad tab
3 comments total.
0 reply
steinvoskuil wrote on July 6 2009, 08:00 am

My suggestion for the Piano Riff would be
e|-----------------------------------------|
B|---12-13-14------------------------------|
G|---12-14-14-12-14-14---14-14-14-10-------|
D|------------14-------0-15-15-15-12-12-12-|
A|12---------------------------------------|
E|-----------------------------------------|

Please note that I play the piano, not the guitar. So it might be a bit odd to play this on guitar, but these are the notes I play on piano.

0 reply
patch17 wrote on July 7 2009, 12:19 pm

cheers mate :) its a bit odd to play but thanks a million for the suggestion :D

0 reply
howard32 wrote on July 29 2009, 08:31 am

it's got one mistake, well you miss one lil note out, at the solo, right at the end, you have to play 2nd fret on the A string after the 3rd fret as you have put, if you try this the solo will sound exactly as the track, apart from that this tab i solid, well done :)

I want to post or [tab]
guest
You may want to rate the tab now too:
select rating
Please do not post tabs as comments. Select "correction" instead!