Oops, an error
Loading. Please wait.

Plans Tab

version 1
version 1

Whole song

Interactive

9,936 views 15 this week
8 commentsread comments
1 2 3 4 5
excellent!
x 5
add to favorites
launch autoscroll
font size
0
reset
how to read this tab
guitar tuner
Tab Pro tools
  • play this tab
  • loop segment
  • change instrument
  • show fretboard
  • metronome
Autoscroll
slow
fast
+/-
esc
set tempo
stop
Contributor
Bloc Party
Plans

This tab was done originally by Daniel King (alittleleftbehind.tk) but some corrections were made.
Questions/Comments - jonlynch02@yahoo.com

Guitar 1 (Phaser, Reverb, Delay)
e|-----0-------0---|
B|---6-------6-----|
G|-------5-------5-|
D|-7-------7-------|
A|-----------------|
E|-----------------|

Guitar 2 (Wah, Reverb, Delay)
e|-------|
B|-------|
G|-10~~~-|
D|-10~~~-|
A|--8~~~-|
E|-------|

Verse
Guitar 2             Delay here |    Last time
e|-------------------------------|----------------|
B|-----------10-10-10-10-8-8-8-8-|----------------|
G|-2~-3/9-5----------------------|-2-3/9-5/7/9/12-|
D|-------------------------------|----------------|
A|-------------------------------|----------------|
E|-------------------------------|----------------|

Chorus
Guitar 1 (keyboard in studio)
e|---------------------------------------------------1-x-1-1-1-1---|
B|---------------------------------------------------3-x-3-3-3-3---|
G|-7-7-7-7-7-7-7-7-5-5-5-5-5-5-5-5-3-3-3-3-3-3-3-3-3-3-3-3-3-3-3-3-|
D|-----------------------------------------------------------------|
A|-5-5-5-5-5-5-5-5-3-3-3-3-3-3-3-3-1-1-1-1-1-1-1-1-1-1-1-1-1-1-1-1-|
E|-----------------------------------------------------------------|

Guitar 2
e|-12-12-12-12-12-12-12-12-------------------------------------|
B|-------------------------13-13-13-13-13-13-15-15-15-15-15-15-|
G|--9--9--9--9--9--9--9--9-------------------------------------|
D|-------------------------10-10-10-10-10-10-12-12-12-12-12-12-|
A|-------------------------------------------------------------|
E|-------------------------------------------------------------|

Verse
Guitar 1
e|-----------------------------------------------------------------|
B|-----------------------------------------------------------------|
G|-----------------------------------------------------------------|
D|-7-7-7-7-7-7-7-7-3-3-3-3-3-3-3-3-6-6-6-6-6-6-6-6-7-7-7-7-7-7-7-7-|
A|-7-7-7-7-7-7-7-7-3-3-3-3-3-3-3-3-6-6-6-6-6-6-6-6-7-7-7-7-7-7-7-7-|
E|-5-5-5-5-5-5-5-5-1-1-1-1-1-1-1-1-8-8-8-8-8-8-8-8-5-5-5-5-5-5-5-5-|

Guitar 2 (Reverb, Delay)
e|---------------------------------|
B|---------------------------------|
G|---10---10---10--10~~~--10/18~~~-|
D|-----------------10~~~-----------|
A|-8----8----8------8~~~-----------|
E|---------------------------------|

Guitar 1 Last time
e|-----------------------------------------------------------------|
B|-----------------------------------------------------------------|
G|-----------------------------------------------------------------|
D|-7-7-7-7-7-7-7-7-3-3-3-3-3-3-3-3-5-5-5-5-5-5-5-5-7-7-7-7-7-7-7-7-|
A|-7-7-7-7-7-7-7-7-3-3-3-3-3-3-3-3-5-5-5-5-5-5-5-5-7-7-7-7-7-7-7-7-|
E|-5-5-5-5-5-5-5-5-1-1-1-1-1-1-1-1-3-3-3-3-3-3-3-3-5-5-5-5-5-5-5-5-|

Chorus

Outro/Solo
Guitar 1
e|-----------------------------|
B|-----------------------------|
G|-10~-/0-10~-/0-10~-/0-10~-/0-|
D|-----------------------------|
A|-----------------------------|
E|-----------------------------|

Guitar 2 (Wah, Reverb, Delay)
e|-------|
B|-------|
G|-10~~~-|
D|-10~~~-|
A|--8~~~-|
E|-------|

Guitar 1
e|----------------------------------------------------------------------------|
B|-10-10-10-10-10-10-10-10-6-6-6-6-6--6-11-11-11-11-11-11-11-11-10-10-10-10bb-|
G|----------------------------------------------------------------------------|
D|----------------------------------------------------------------------------|
A|----------------------------------------------------------------------------|
E|----------------------------------------------------------------------------|

Guitar 2 (Wah, Reverb)
e|-------------------------------------------------|
B|-6-6-6--6-6-6--6-6-6/-10--6-6-6--6-6-6--6-6-6/-6-|
G|-5-5-5--5-5-5--5-5-5/--9--5-5-5--5-5-5--5-5-5/-5-|
D|-------------------------------------------------|
A|-------------------------------------------------|
E|-------------------------------------------------|

Guitar 1
e|--------------------------------------------------------|
B|-10-10-10-10-10-10-10-10-6-6-6-6-6--6/15-13-11-10-11-10-|
G|--------------------------------------------------------|
D|--------------------------------------------------------|
A|--------------------------------------------------------|
E|--------------------------------------------------------|

Guitar 2 (Wah, Reverb)
e|-------------------------------------------------|
B|-6-6-6--6-6-6--6-6-6/-10--6-6-6--6-6-6--6-6-6/-6-|
G|-5-5-5--5-5-5--5-5-5/--9--5-5-5--5-5-5--5-5-5/-5-|
D|-------------------------------------------------|
A|-------------------------------------------------|
E|-------------------------------------------------|

Guitar 1
e|---------------------------------------------------------------------------|
B|-10-10-10-10-10-10-10-10-6-6-6-6-6--6-15-15-15-15-15-15-15-15-15-15-15-15/-|
G|---------------------------------------------------------------------------|
D|---------------------------------------------------------------------------|
A|---------------------------------------------------------------------------|
E|---------------------------------------------------------------------------|

Guitar 2 (Wah, Reverb)
e|-------------------------------------------------|
B|-6-6-6--6-6-6--6-6-6/-10--6-6-6--6-6-6--6-6-6/-6-|
G|-5-5-5--5-5-5--5-5-5/--9--5-5-5--5-5-5--5-5-5/-5-|
D|-------------------------------------------------|
A|-------------------------------------------------|
E|-------------------------------------------------|

Guitar 1
e|-----------------------------------------|
B|-18-18-18-18-18-18--18-18-18-18b-18b-18b-|
G|-----------------------------------------|
D|-----------------------------------------|
A|-----------------------------------------|
E|-----------------------------------------|

Guitar 2
e|-------------------------------------------|
B|-------------------------------------------|
G|-10/-19-19-17-17-------12-12--------??????-|
D|-----------------14-14-------??????--------|
A|-------------------------------------------|
E|-------------------------------------------|

Guitar 1
e|----------------------------------------------------------------------|
B|-18-17-15-13~-13-15-13-11-10~-11-10----11-10----11-10----11-10--------|
G|------------------------------------10-------10-------10-------10-12b-|
D|----------------------------------------------------------------------|
A|----------------------------------------------------------------------|
E|----------------------------------------------------------------------|

Guitar 2
e|---------------------------------------------------|
B|---------------------------------------------------|
G|-15-14-12-10~-10-12-5-7-5-5-7-5-5-7-5-5-7-7-5-5-7b-|
D|---------------------------------------------------|
A|---------------------------------------------------|
E|---------------------------------------------------|

Guitar 1
e|---------------------------------------------------|
B|---------11-10------------------------11-10/-15-13-|
G|-12-10-9-------12-10-9--------12-10-9--------------|
D|-----------------------12-10~----------------------|
A|---------------------------------------------------|
E|---------------------------------------------------|

Guitar 2
e|-------------------------------|
B|-------------------------------|
G|-10-12-14-17-17-15-14-19-19-17-|
D|-------------------------------|
A|-------------------------------|
E|-------------------------------|

Both
e|-------------------------------18-17-15-13-15-17-20b-20-|
B|-------------------20-18-17-18--------------------------|
G|-19-17-15-14-15-17--------------------------------------|
D|--------------------------------------------------------|
A|--------------------------------------------------------|
E|--------------------------------------------------------|

comments
print report bad tab
8 comments total. Showing first comments.
0 reply
bill-bones wrote on August 19 2006, 12:33 am

Quick correction on the last bit 8 notes in it is 18-17-18 rather than 17-18-17. Great tab

0 reply
UnsignedRecords wrote on August 19 2006, 03:46 pm

ah thanks. i'll fix that.

+2 reply
geffro42 wrote on October 1 2008, 10:44 am

this part
Guitar 1 (Phaser, Reverb, Delay)
e|------------------|
B|---5-6-5----5-6-5-|
G|------------------|
D|-7-------7--------|
A|------------------|
E|------------------|

this sounds better to me :)
Guitar 1 (Phaser, Reverb, Delay)
e|-----0-------0------|
B|---6-------6--------|
G|------5-------5-----|
D|-7-------7----------|
A|--------------------|
E|--------------------|

I want to post or [tab]
guest
You may want to rate the tab now too:
select rating
Please do not post tabs as comments. Select "correction" instead!