Oops, an error
Loading. Please wait.

Positive Tension Tab

version 2
version 2

Whole song

Interactive

19,005 views 21 this week
3 commentsread comments
1 2 3 4 5
accurate
x 8
add to favorites
launch autoscroll
font size
0
reset
how to read this tab
guitar tuner
Autoscroll
slow
fast
+/-
esc
set tempo
stop
Help us to improve Ultimate-Guitar.com Take our survey!
×
Author
Band: Bloc Party
Song: Positive Tension
Album: Silent Alarm
Tuning: Standard
Tabbed by: Cody
Direct any questions to xyour_favorite_wordsx@yahoo.com
American Kids can tab Bloc Party too!

|---------------6----------------------------|
|--------------------------------------------|:58-1:10 
|-8~/7-8/7-8/7-----8/7-8/7-8/7---------------|
|-------------------------------8------------| x2
|--------------------------------------------|
|--------------------------------------------|


|--------------------------|
|--------------------------|
|--------------------------| 1:22-1:42
|---6~~---------------3~~--| x4
|---6~~---------------3~~--|
|---4~~---------------1~~--|

|---------------------|
|---------------------|
|--12/11-12/11-13-----|1:46-1:58
|-----------------12--| x4
|---------------------|
|---------------------|

|------------6-----------------------------6--------------------|
|---------------------------------------------------------------|
|-8-8-88--7-----8-8-88--7-----8~/7-8/7-8/7-----8/7-8/7-8/7------| 1:58-2:10
|--------------------------8--------------------------------8---|
|---------------------------------------------------------------|
|---------------------------------------------------------------|

|----------------------------------------------------|
|----------------------------------------------------|
|-----------8/7-8/7-8/7-------------8/7-8/7-8/7------| 2:10-2:31
|-6~~--3~~--------------8-6~~--3~~--------------8----| x2
|-6~~--3~~----------------6~~--3~~-------------------|
|-4~~--1~~----------------4~~--1~~-------------------|

|--------------------|
|--------------------|
|--------------------| 2:31-2:34
|-10--10-1010--------|
|--------------12----|
|--------------------|

|-----------------------------------------|
|-----------------------------------------|  
|---5-5-5------------------------7-7-7-7--|   
|---5-5-5--5-5-5--6-6-6--3-3-3---7-7-7-7--|   
|---3-3-3--5-5-5--6-6-6--3-3-3---5-5-5-5--|
|----------3-3-3--4-4-4--1-1-1------------|
|                                         | x7
|-----------------------------------------|  
|-----------------------------------------|  
|---5-5-5------------------------6-6-6-6--|  
|---5-5-5--5-5-5--6-6-6--3-3-3---6-6-6-6--| 
|---3-3-3--5-5-5--6-6-6--3-3-3---4-4-4-4--| 
|----------3-3-3--4-4-4--1-1-1------------| 


|-----------------------------------------|
|-----------------------------------------|  
|---5-5-5------------------------7-7-7-7--|   
|---5-5-5--5-5-5--6-6-6--3-3-3---7-7-7-7--|   
|---3-3-3--5-5-5--6-6-6--3-3-3---5-5-5-5--|
|----------3-3-3--4-4-4--1-1-1------------|
                                 
|--------------------|  
|--------------------|  
|---5-5-5------------|  
|---5-5-5--5-5-5--6--| 
|---3-3-3--5-5-5--6--| 
|----------3-3-3--4--| 

|--------------------------------------------------|
|--------------------------------------------------|
|--12----12-15-13-12---12----12--15-13-12----------|
|-----13------------------13-----------------------|
|--------------------------------------------------|
|--------------------------------------------------|

|-11---13-----------------------------|
|------------15-16--------------------|
|---------------------15-15-13-15-12--|
|-------------------------------------|
|-------------------------------------|
|-------------------------------------|

|------------------------------------------------------|
|---------------------------13-------------------------|
|-12--10-10-8-8--10-----15------13--15--12--13------12-|
|-----------------------------------------------15-----|
|------------------------------------------------------|
|------------------------------------------------------|

|----------------------------------------------------|
|----------------------------------------------------|
|-----------------------------10---------------------|
|-13-12--10-10-10-12-10-13-10----10--10-10-12--------|
|----------------------------------------------------|
|----------------------------------------------------|

|--------------------------------------------------|
|------------------15~~----------------------------|
|----------10------16~~----------------------------|
|-10-13-10----10-----------------------------------|
|--------------------------------------------------|
|--------------------------------------------------|

Suggest correction
comments
print report bad tab
3 comments total.
0 reply
Oasisy Bob 72 wrote on November 29 2006, 03:33 pm

You've put notes from the G string on the b string by accident...

0 reply
Whatley2212 120 wrote on November 30 2006, 12:39 am

Thanks! I didn't even notice. I fixed it and resubmitted it, it should be up soon.

0 reply
Bumcivilian 211 wrote on August 25 2008, 11:51 am

Brilliant. Spot on.

guest
You may want to rate the tab now too:
select rating
Wanna post a correction for this tab? Suggest correction