Oops, an error
Loading. Please wait.

Prayer Tab

version 3
version 3

Whole song

Interactive

3,830 views 3 this week
4 commentsread comments
1 2 3 4 5
accurate
x 4
add to favorites
launch autoscroll
font size
0
reset
how to read this tab
guitar tuner
Autoscroll
slow
fast
+/-
esc
set tempo
stop
Help us to improve Ultimate-Guitar.com Take our survey!
×
Author
love this song i think it goes like this  ;)
feel free to correct/criticize
Tuning: Standard
Intro/verse part 1
Tremolo picking

e|----------------------------------------------|
B|----------------------------------------------|
G|----------------------------------------------|
D|----------------------------------------------|
A|----------------------------------------------|
E|-5-------8---5------12---5------8---5------15-|

verse part 2
tremolo picking

e|--------------------------------------------------|
B|--------------------------------------------------|
G|--------------------------------------------------|
D|--------------------------------------------------|
A|--------------------------------------------------|
E|-5------------8--------------10---------------12--|


Chorus

Synth on guitar

e|---13--12----------------------------|
B|-13--12--10-12--13-------------------|
G|--------------12----12--14-14-12-9-7-|                                  x4
D|------------------14--10-------------|
A|-------------------------------------|
E|-------------------------------------|

Other chorus guitar from synth

e|-----------------------------------------|
B|-----------------------------------------|
G|-----------------8--8--8--8--8--8--8--8--|
D|-7-7-7-7-7-7-7-7-9--9--9--9--9--9--9--9--|
A|-7-7-7-7-7-7-7-7-10-10-10-10-10-10-10-10-|
E|-5-5-5-5-5-5-5-5-7--7--7--7--7--7--7--7--|

                                                                                         
                                             x4

e|-----------------------------------------|
B|-----------------------------------------|
G|-----------------------------------------|
D|-10-10-10-10-10-10-10-10-3-3-3-3-3-3-5-5-|
A|-10-10-10-10-10-10-10-10-3-3-3-3-3-3-5-5-|
E|-8--8--8--8--8--8--8--8--1-1-1-1-1-1-3-3-|

solo


e|----x-x-x--------x-x-x-------x-x-x-10-------------8////////20---|
B|----x-x-x--------x-x-x-8-----x-x-x------13-12-13----------------|
G|----x-x-x-7------x-x-x-------x-x-x------------------------------|
D|----x-x-x--------x-x-x-------x-x-x------------------------------|
A|----x-x-x--------x-x-x-------x-x-x------------------------------|
E|----x-x-x--------x-x-x-------x-x-x------------------------------|


e|-15\12-12/13--12\10-10-8-8\-xxxxxxxxxxxxxxx----------|
B|---------------------------xxxxxxxxxxxxxxxx----------|
G|---------------------------with-effects-pedal-here---|
D|-----------------------------------------------------|
A|-----------------------------------------------------|
E|-----------------------------------------------------|

then back to chorus
Suggest correction
comments
print report bad tab
4 comments total. Showing first comments.
+1 reply
Snoil 53 wrote on September 21 2008, 08:37 pm

Great job but one thing[thoughts its not that big].
In the Solo on the 8 you slide it up, and on the last 2 strings you pick scrape. But still great job.

0 reply
nemokoning 10 wrote on November 24 2008, 12:20 pm

What effect he uses while he's playing the solo?

0 reply
kingurth 155 wrote on May 14 2009, 10:58 pm

He's got an octave pedal that he uses which lets him make those HUGE leaps in pitch.

guest
You may want to rate the tab now too:
select rating
Wanna post a correction for this tab? Suggest correction