Oops, an error
Loading. Please wait.

Ratchet Bass Tab

version 1
version 1

Whole song

Interactive

5,893 views 21 this week
no commentswrite comment
1 2 3 4 5
excellent!
x 9
add to favorites
launch autoscroll
font size
0
reset
guitar tuner
Autoscroll
slow
fast
+/-
esc
set tempo
stop
Help us to improve Ultimate-Guitar.com Take our survey!
×
Author
Difficulty
Tuning
novice
D A D G B E
Tuning: GDAD

(Main Riff)
G|-------------|---------|-------------|-----------|
D|-------------|---------|-------------|-------3/5-|
A|-5-------5/8-|---------|-5-------5/8-|-----------| x4
D|---0-3-3-----|-------0-|---0-3-3-----|-----0-----| 

(chorus)
G|----------------------|------------------------------------|
D|----------------------|------------------------------------|
A|-5-5-5-5-6-6-/7-7\3-3-|-/10-10-10-10-11-11-/12-12-12-11-11-| x2
D|----------------------|------------------------------------|

G|-------------|---------|-------------|-----------|
D|-------------|---------|-------------|-------3/5-|
A|-5-------5/8-|---------|-5-------5/8-|-----------| x4
D|---0-3-3-----|-------0-|---0-3-3-----|-----0-----| 

G|----------------------|------------------------------------|
D|----------------------|------------------------------------|
A|-5-5-5-5-6-6-/7-7\3-3-|-/10-10-10-10-11-11-/12-12-12-11-11-| x4
D|----------------------|------------------------------------|

Breakdown:
G|--------------------------|
D|--------------------------|
A|-5-----------0-0-1-2-3-4--| x3
D|---0-3-3-5-6--------------|

G|---------------|
D|---------------|
A|-5-----------0-|
D|---0-3-3-5-6---|

G|----------------------|-----------------------------------|
D|----------------------|-----------------------------------|
A|-5-5-5-5-6-6-/7-7\3-3-|-/10-10-10-10-11-11/12-12-12-11-11-| x2
D|----------------------|-----------------------------------|

G|---------------------|---------------------------------|
D|---------------------|---------------------------------|
A|-5-5-5-5\3-3/7-7\3-3-|-/10-10-10-10\8-8/12-12-12\11-11-| x2
D|---------------------|---------------------------------|

G|--------------------------|
D|--------------------------|
A|-5-----------0-0-1-2-3-4--| x3
D|---0-3-3-5-6--------------|

G|---------------------|
D|---------------------|
A|-5-----------0-0-1-2-|
D|---0-3-3-5-6---------|

I'll be uploading a cover of this song shortly at www.youtube.com/user/hamsterjetcar
Suggest correction
comments
print report bad tab
guest
You may want to rate the tab now too:
select rating
Wanna post a correction for this tab? Suggest correction