Oops, an error
Loading. Please wait.

Real Talk Tab

version 1
version 1

Whole song

Interactive

10,885 views 9 this week
1 commentread comment
1 2 3 4 5
excellent!
x 13
add to favorites
launch autoscroll
font size
0
reset
how to read this tab
guitar tuner
Autoscroll
slow
fast
+/-
esc
set tempo
stop
Help us to improve Ultimate-Guitar.com Take our survey!
×
Author
Bloc Party
Album - Four (unreleased)
Real Talk (title used at gigs before album released)


Not sure if this is 100% right but im going from what i saw/heard at their recent 
gigs. Standard tuning for both i think.

I have Keles, Russells (and Gordons) parts

Enjoy and please rate


Kele:

Intro/Verse

(listen to song to get rhythm)

e|-------|-------|-------|-------|
B|---5---|---9---|---5---|---0---|
G|---6---|---9---|---6---|---1---|  x1 for intro, x2 for  verse
D|---6---|---9---|---6---|---2---|
A|---4---|---7---|---4---|---2---|
E|-------|-------|-------|---0---|

Pre-Chorus

e|--------|--------|--------|
B|--4--2--|--5--5--|--4--2--|
G|--4--2--|--6--6--|--4--2--|  
D|--4--2--|--6--6--|--4--2--|
A|--2--0--|--4--4--|--2--0--|
E|--------|--------|--------|

Chorus

e|---------|----------|---------|----------|
B|--10--9--|--9---9---|--10--9--|--9---9---|
G|--11--9--|--9---9---|--11--9--|--9---9---|
D|--11--9--|--11--11--|--11--9--|--11--11--|
A|--9---7--|--11--11--|--9---7--|--11--11--|
E|---------|--9---9---|---------|--9---9---|


e|---------|---------|---------|----------|
B|--10--12-|--9---9--|--10--13-|----------|
G|--11--13-|--9---9--|--11--13-|-A Break--|
D|--11--13-|--11--9--|--11--13-|----------|
A|--9---11-|--11--7--|--9---11-|----------|
E|---------|--9------|---------|----------|

Verse 2

e|-------|-------|-------|-------|
B|---5---|---9---|---5---|---0---|
G|---6---|---9---|---6---|---1---|  x2 for  verse
D|---6---|---9---|---6---|---2---|
A|---4---|---7---|---4---|---2---|
E|-------|-------|-------|---0---|

Pre-Chorus

e|--------|--------|--------|
B|--4--2--|--5--5--|--4--2--|
G|--4--2--|--6--6--|--4--2--|  
D|--4--2--|--6--6--|--4--2--|
A|--2--0--|--4--4--|--2--0--|
E|--------|--------|--------|

Chorus

e|---------|----------|---------|----------|
B|--10--9--|--9---9---|--10--9--|--9---9---|
G|--11--9--|--9---9---|--11--9--|--9---9---|
D|--11--9--|--11--11--|--11--9--|--11--11--|
A|--9---7--|--11--11--|--9---7--|--11--11--|
E|---------|--9---9---|---------|--9---9---|


e|---------|---------|---------|
B|--10--12-|--9---9--|--10--13-|
G|--11--13-|--9---9--|--11--13-| straight to bridge no brak this time
D|--11--13-|--11--9--|--11--13-|
A|--9---11-|--11--7--|--9---11-|
E|---------|--9------|---------|

Bridge

e|---------|---------|
B|--13--13-|--13--13-|
G|--14--14-|--13--13-| x3
D|--14--14-|--13--13-|
A|--12--12-|--11--11-|
E|---------|---------|

e|---------|---------|
B|--12--12-|--12--12-|
G|--12--12-|--12--12-|
D|--12--12-|--12--12-|
A|--10--10-|--10--10-|
E|---------|---------|

Final Chorus

e|---------|---------|---------|---------|
B|--16--15-|--15--15-|--16--15-|--15--15-|
G|--17--15-|--15--15-|--17--15-|--15--15-|
D|--17--15-|--17--17-|--17--15-|--17--17-|
A|--15--13-|--17--17-|--15--13-|--17--17-|
E|---------|--15--15-|---------|--15--15-|

e|---------|---------|---------|
B|--16--18-|--15--15-|--16--19-|
G|--17--19-|--15--15-|--17--19-| goes straight back to start of chorus again 
D|--17--19-|--17--15-|--17--19-| which you can see below
A|--15--17-|--17--13-|--15--17-|
E|---------|--15-----|---------|

e|---------|---------|---------|---------|
B|--16--15-|--15--15-|--16--15-|--15--15-|
G|--17--15-|--15--15-|--17--15-|--15--15-|
D|--17--15-|--17--17-|--17--15-|--17--17-|
A|--15--13-|--17--17-|--15--13-|--17--17-|
E|---------|--15--15-|---------|--15--15-|

e|---------|---------|---------|---------|
B|--16--18-|--15--15-|--16--19-|---------|
G|--17--19-|--15--15-|--17--19-|-A Break-|
D|--17--19-|--17--15-|--17--19-|---------|
A|--15--17-|--17--13-|--15--17-|---------|
E|---------|--15-----|---------|---------|

End


Russell:

Nothing in Intro and Verse and Pre-chorus

Chorus:

e|-----------------------------------|
B|---10-------9----------------------|
G|------11------9----9---------------| x2
D|---------------------11------------|
A|-----------------------------------|
E|-----------------------------------|

e|-----------------------------------|
B|---10------12----------------------|
G|------11------13---9---------------|
D|---------------------11------------|
A|-----------------------------------|
E|-----------------------------------|

e|-----------------------------------|
B|---10------13----------------------|
G|------11------13-------------------|
D|-----------------------------------|
A|-----------------------------------|
E|-----------------------------------|


2nd Verse

P.M all notes

e|-----------------------------------------------------------------|
B|-----------------------------------------------------------------|
G|-----------------------------------------------------------------|
D|-6-----6-----6-----6-----6-----6-----6-----6-----6-----6-----6---|
A|---7-----7-----7-----7-----7-----7-----7-----7-----7-----7-----7-|
E|-----9-----9-----9-----9-----9-----9-----9-----9-----9-----9-----|

e|-----------------------------------------------------------------|
B|-----------------------------------------------------------------|
G|-----------------------------------------------------------------|
D|-9-----9-----9-----9-----9-----9-----9-----9-----9-----9-----9---|
A|---7-----7-----7-----7-----7-----7-----7-----7-----7-----7-----7-|
E|-----7-----7-----7-----7-----7-----7-----7-----7-----7-----7-----|

e|-----------------------------------------------------------------|
B|-----------------------------------------------------------------|
G|-----------------------------------------------------------------|
D|-6-----6-----6-----6-----6-----6-----6-----6-----6-----6-----6---|
A|---7-----7-----7-----7-----7-----7-----7-----7-----7-----7-----7-|
E|-----9-----9-----9-----9-----9-----9-----9-----9-----9-----9-----|

e|-----------------------------------------------------------------|
B|-----------------------------------------------------------------|
G|-----------------------------------------------------------------|
D|-9-----9-----9-----9-----9-----9-----9-----9-----9-----9-----9---|
A|---7-----7-----7-----7-----7-----7-----7-----7-----7-----7-----7-|
E|-----7-----7-----7-----7-----7-----7-----7-----7-----7-----7-----|

Pre-Chorus

e|-----------------------------------------------------------------|
B|-----------------------------------------------------------------|
G|-----------------------------------------------------------------|
D|-4-----4-----4---2-----2-----2---6-----6-----6-----6-----6-----6-|
A|---2-----2-----2---0-----0-----0---7-----7-----7-----7-----7-----|
E|-----2-----2---------0-----0---------9-----9-----9-----9-----9---|

e|---------------------------------|
B|---------------------------------|
G|---------------------------------|
D|-4-----4-----4---2-----2-----2---|
A|---2-----2-----2---0-----0-------|
E|-----2-----2---------0-----0-----|


Chorus:

e|-----------------------------------|
B|---10-------9----------------------|
G|------11------9----9---------------| x2
D|---------------------11------------|
A|-----------------------------------|
E|-----------------------------------|

e|-----------------------------------|
B|---10------12----------------------|
G|------11------13---9---------------|
D|---------------------11------------|
A|-----------------------------------|
E|-----------------------------------|

e|-------------------|
B|---10------13------|
G|------11------13---| No Break go striaght to Bridge
D|-------------------|
A|-------------------|
E|-------------------|

Bridge                                |_Play faster__|

e|-12----------12----------11----------11----11--- 11--|
B|-------13----------13----------13------13----13------|
G|----14----14----14----14----13----13-----13----13----|  x3
D|-----------------------------------------------------|
A|-----------------------------------------------------|
E|-----------------------------------------------------|

e|13----13----13----13----13----13----13----13----13----13-------|
B|--12----12----12----12----12----12----12----12----12-----------|
G|----12----12----12----12----12----12----12----12----12---------|
D|---------------------------------------------------------------|
A|---------------------------------------------------------------|
E|---------------------------------------------------------------|

Final Chorus

e|-----------------------------------|
B|---16------15----------------------|
G|------17------15---15--------------| x2
D|----------------------17-----------|
A|-----------------------------------|
E|-----------------------------------|

e|-----------------------------------|
B|---16------18----------------------|
G|------17------19---15--------------|
D|----------------------17-----------|
A|-----------------------------------|
E|-----------------------------------|

e|-------------------|
B|---16------19------|
G|------17------19---| goes straight back to start of chorus again which you can see below
D|-------------------|
A|-------------------|
E|-------------------|

e|-----------------------------------|
B|---16------15----------------------|
G|------17------15---15--------------| x2
D|----------------------17-----------|
A|-----------------------------------|
E|-----------------------------------|

e|-----------------------------------|
B|---16------18----------------------|
G|------17------19---15--------------|
D|----------------------17-----------|
A|-----------------------------------|
E|-----------------------------------|

e|-------------------|---------|
B|---16------19------|---------|
G|------17------19---|-A Break-|
D|-------------------|---------|
A|-------------------|---------|
E|-------------------|---------|

End

Gordon

His bass just follows same rhythm as kele and has the same root notes



Thanks, i hope this helped, please rate :D Really looking forward to new album
Suggest correction
What's this?
You can suggest a correction to this tab. Community and Mods will review your correction and vote to approve or reject it.
comments
print report bad tab
1 comment total.
+3 reply
limosha 17 wrote on August 3 2012, 06:07 pm

pretty sure the 2nd verse for russ goes like this:
e|-----------------------------------------------------------------|
B|-----------------------------------------------------------------|
G|-----------------------------------------------------------------|
D|-6-----6-----6-----6-----6-----6-----6-----6-----6-----6-----6---|
A|---7-----7-----7-----7-----7-----7-----7-----7-----7-----7-----7-|
E|-----9-----9-----9-----9-----9-----9-----9-----9-----9-----9-----|

e|-----------------------------------------------------------------|
B|-----------------------------------------------------------------|
G|-----------------------------------------------------------------|
D|-9--6-----9--6-----9--6-----9--6-----9--6-----9--6-----9--6------|
A|-------7--------7--------7--------7--------7--------7--------7---|
E|-----------------------------------------------------------------|

guest
You may want to rate the tab now too:
select rating
Please do not post tabs as comments. Select "correction" instead!