Oops, an error
Loading. Please wait.

Secrets Tab

version 1
version 1

Intro

Whole song

2,630 views 1 this week
2 commentsread comments
1 2 3 4 5
x 7
add to favorites
launch autoscroll
font size
0
reset
how to read this tab
guitar tuner
Autoscroll
slow
fast
+/-
esc
set tempo
stop
Help us to improve Ultimate-Guitar.com Take our survey!
×
Author
Difficulty
novice
-------------------------------------------------------------------------------
                             Secrets - Bloc Party
-------------------------------------------------------------------------------
Tabbed by: Jens Kat
Email: jens_kat@hotmail.com

new song released with a really nice riff.

Tuning: standard

e|---7---------------------------------------------------------------------------7-7---|
B|------10-7------------7-----------------------------7-7------7--10-10--7--10---------|
G|------------9-9----9-----9--7-----------------7--9--------9--------------------------|
D|---------------------------------7--9-----7--9---------------------------------------|
A|-------------------------------------------------------------------------------------|
E|-------------------------------------------------------------------------------------|

e|---17-14--------------------------------------------------------14--17--19-|
B|---------17--15-15---15--17--------------------15----17---15-17------------|
G|-----------------------------16--14-16--14--16----16-----------------------|
D|---------------------------------------------------------------------------|
A|---------------------------------------------------------------------------|
E|---------------------------------------------------------------------------|
Suggest correction
comments
print report bad tab
2 comments total.
0 reply
Miquespa 10 Feb 12, 2008 03:03 PM

Yeah, sounds good and seems correct!

+1 reply
swaxq123 20 Apr 13, 2009 10:06 AM

works perfectly, i've been playing

-------17--19---
-------15--17---

as the last two notes, if I'm right that's what's on the record but i could be wrong

guest
You may want to rate the tab now too:
select rating
Wanna post a correction for this tab? Suggest correction