Oops, an error
Loading. Please wait.

Secrets Bass Tab

version 2
version 2

Whole song

253 views 1 this week
no commentswrite comment
1 2 3 4 5
3 more votes to show rating
add to favorites
launch autoscroll
font size
0
reset
guitar tuner
Autoscroll
slow
fast
+/-
esc
set tempo
stop
Help us to improve Ultimate-Guitar.com Take our survey!
×
Author
-------------------------------------------------------------------------------
                              BLOC PARTY - Secrets
-------------------------------------------------------------------------------

Tabbed By: Truck89
e-mail: dyslexic_potato@hotmail.com

Tuning: Standard (EADG)


[Fig. 1] (Main Riff)

   1 + 2 + 3 + 4 +    1 + 2 + 3 + 4 +   
G|------------------|------------------|
D|------------------|------------------|
A|-2-2-2-2-2-2-2-4--|-5-5-5------------|
E|------------------|-------2-3-3-2-2--|


[Fig. 2] (Pre-Chorus) 

   1 + 2 + 3 + 4 +    1 + 2 + 3 + 4 +    1 + 2 + 3 + 4 +    1 + 2 + 3 + 4 +  
G|------------------|------------------|------------------|------------------|
D|------------------|------------------|------------------|------------------|
A|-7-7-7-7-7-7-7-7--|-7-7-7-7-5-5-5-5--|-1010101010101010-|-1010101010101010-| (x3)
E|------------------|------------------|------------------|------------------|

   1 + 2 + 3 + 4 +    1 + 2 + 3 + 4 +    1 + 2 + 3 + 4 +    1 + 2 + 3 + 4 +  
G|------------------|------------------|------------------|------------------|
D|------------------|------------------|------------------|------------------|
A|-7-7-7-7-7-7-7-7--|-7-7-7-7-5-5-5-5--|-1010101010101010-|------------------|
E|------------------|------------------|------------------|-5-5-5-5-5-5-5-5--|


[Fig. 3] (Bridge Riff)

   1 + 2 + 3 + 4 +    1 + 2 + 3 + 4 +    1 + 2 + 3 + 4 +    1 + 2 + 3 + 4 +  
G|------------------|------------------|------------------|------------------|
D|------------------|------------------|------------------|------------------|
A|------------------|-5-5-----5-5------|------------------|------------------|
E|-5-5-5-5-5-5-5-5--|-----5-5-----5-5--|-3-3-3-3-3-3-3-3--|-3-3-3-3-2-2-3-3--|


[Fig. 4] (Chorus/Outro)

   1 + 2 + 3 + 4 +    1 + 2 + 3 + 4 +   
G|------------------|------------------|
D|------------------|------------------|
A|-2-2-2-2-2-2-2-4--|-5-5-5------------|
E|---------------5--|-5-5-5-2-3-3-2-2--|



<<>>

Intro/Verse 1:  		Fig.1 x 20

Pre-chorus: 		Fig.2 x 1

Chorus:		 	Fig.4 x 8

Verse 2: 		Fig.1 x 16

Pre-chorus:		Fig.2 x 1

Chorus: 			Fig.4 x 8

Bridge: 			Fig.3 x 4

Outro:			Fig.4 x 8 

Then end on 2nd fret A string.

Parts of this song were pretty tough to pick the bass out from, particularly
the Chorus/Outro. So if you dont think the chorus riff sounds right with
chords in it (Im still unsure myself) then just play the main riff, it works fine.
Cheers!



| /  slide up
| \  slide down
| h  hammer-on
| p  pull-off
| ~  vibrato
| +  harmonic
| x  Mute note
===============================================================================
Suggest correction
Give kudos to tab author, rate the tab!
1 2 3 4 5
comments
print report bad tab
guest
You may want to rate the tab now too:
select rating
Wanna post a correction for this tab? Suggest correction