Oops, an error
Loading. Please wait.

Selfish Son Tab

1,097 views 1 this week
no commentswrite comment
1 2 3 4 5
please rate
add to favorites
launch autoscroll
font size
0
reset
how to read this tab
guitar tuner
Autoscroll
slow
fast
+/-
esc
set tempo
stop
Help us to improve Ultimate-Guitar.com Take our survey!
×
Author
This is a lush song. I havent done a tab in ages, but I think this one is pretty much 100%,
theres just a few bits I'm not sure on.
Enjoy :)

Intro/Verse 1
e|-------------------------------------------------------------------------|
B|-------------------------------------------------------------------------|
G|7x7xx7x7--10x10xx10x10--10x10xx10x10--10x10xx9x9-------------------------|
D|-------------------------------------------------------------------------|
A|-------------------------------------------------------------------------|
E|-------------------------------------------------------------------------|

Chorus - Aahs in background/Guitar 2
e|-------------------------------------------------------------------------|
B|-------------------------------------------------------------------------|
G|-------------------------------------------------------------------------|
D|3~~~~~~~~~~~~~~~~~~~~~~~5~~~8~~~~~~~~~~~~~~~~~~~~~~~~~~------------------|
A|-------------------------------------------------------------------------|
E|-------------------------------------------------------------------------|

Chorus - Guitar 1
e|-------------------------------------------------------------------------|
B|-------------------------------------------------------------------------|
G|17~~~~~~~~~~~~~~~~~~~~~~~~~~~~15~~~~14~~15~~~~~~~~~~~~~~~~~~~~~~~~~------|
D|-------------------------------------------------------------------------|
A|-------------------------------------------------------------------------|
E|-------------------------------------------------------------------------|

Verse 2 Glockenspiel Riff 1/Guitar 1
e|-----------------------|
B|-------------11-10-8---|
G|777-9-10-777-----------|
D|-----------------------|
A|-----------------------|
E|-----------------------|

Then another glock riff/Guitar 2 comes in over the top with...
e|------------8-6-5-|
B|6-68-10-666-------|
G|------------------|
D|------------------|
A|------------------|
E|------------------|

Solo - Not 100% on this one

Guitar 1 x2
e|----------------------------------------------------------------------------|
B|----------------------------------------------------------------------------|
G|---------10---------------------10------------------12-10-----------12-10---|
D|---10-------10----10------10-------10----10------10-------10-----10-------10|
A|13----13-------13------13----13-------13------13--------------13------------|
E|----------------------------------------------------------------------------|

e|----------------------------------------------------------------------------|
B|----------------------------------------------------------------------------|
G|---------14-10--------------14-10--------------17-14----14--------14-10-----|
D|---12----------12-----12----------12--14-14-14-------17--------12-------10--|
A|15----15-----------15----15---------------------------------15--------------|
E|----------------------------------------------------------------------------|

Guitar 2 (Comes in over the second repeat of guitar 1 and is played under Guitar 1s part 
end of solo)
e|----------------------------------------------------------------------------|
B|----------------------------------------------------------------------------|
G|10--12---14---15---14---12---10--12---10--12---14---15---14---12---17---17--|
D|----------------------------------------------------------------------------|
A|8---10---12---13---12---10---8---10---8---10---12---13---12---10---15---15--|
E|----------------------------------------------------------------------------|

e|------13-10-------13-10-------13-------15-13-------15-13-------15-|
B|11/13-------11/13-------11/13----11/13-------11/13-------11/13----|
G|------------------------------------------------------------------|
D|------------------------------------------------------------------|
A|------------------------------------------------------------------|
E|------------------------------------------------------------------|

e|------17-13-------17-13-------17-------15-13-------15-13-------15-|
B|11/13-------11/13-------11/13----11/13-------11/13-------11/13----|
G|------------------------------------------------------------------|
D|------------------------------------------------------------------|
A|------------------------------------------------------------------|
E|------------------------------------------------------------------|

e|------13-10-------13-10-------13-------15-13-------15-13-------15-|
B|11/13-------11/13-------11/13----11/13-------11/13-------11/13----|
G|------------------------------------------------------------------|
D|------------------------------------------------------------------|
A|------------------------------------------------------------------|
E|------------------------------------------------------------------|

e|------17-13-------17-13-------17-20-18-17-15-13-|
B|11/13-------11/13-------11/13-------------------|
G|------------------------------------------------|
D|------------------------------------------------|
A|------------------------------------------------|
E|------------------------------------------------|

Last Chorus - Guitar 1 ~ - tremolo
e|13~~~~~~~~~~~~~~~~~~~~~~~~~15~~~~13~~------------------------------------|
B|-------------------------------------13~~~~~~~~~~~~~~~~~~~~~~~~~~~~~~~---|
G|-------------------------------------------------------------------------|
D|-------------------------------------------------------------------------|
A|-------------------------------------------------------------------------|
E|-------------------------------------------------------------------------|
Suggest correction
Give kudos to tab author, rate the tab!
1 2 3 4 5
comments
print report bad tab
guest
You may want to rate the tab now too:
select rating
Please do not post tabs as comments. Select "correction" instead!