Oops, an error
Loading. Please wait.

Shes Hearing Voices Bass Tab

version 2
version 2

Whole song

Interactive

993 views 1 this week
no commentswrite comment
1 2 3 4 5
please rate
add to favorites
launch autoscroll
font size
0
reset
guitar tuner
Autoscroll
slow
fast
+/-
esc
set tempo
stop
Help us to improve Ultimate-Guitar.com Take our survey!
×
Contributor
-------------------------------------------------------------------------------
			  She's Hearing Voices - Bloc Party
-------------------------------------------------------------------------------

Tabbed By :cosmicsoul07
e-mail:emperorconstantine2@hotmail.com 

Tuning:EADG

One of my favorite Bloc Party songs. Incredibly easy to tab!

Verse:
G|---------------------------------------------------------------------------|
D|---------------------------------------------------------------------------|
A|-5-5-5--5-5---5-5-5--5-5--5-5-5--5-5---5-5-5--5-5--------------------------|
E|---------------------------------------------------------------------------|

Then on the "Red Pill, Blue Pill" part:

G|---------------------------------------------------------------------------|
D|---------------------------------------------------------------------------|
A|-5-5-5--5-5---7-7-7--7-7-----------------4-4-4--4-4------------------------|
E|---------------------------6-6-6--6-6--------------------------------------|

Then on the second verse:

G|---------------------------------------------------------------------------|
D|---------------------------------------------------------------------------|
A|-5-5-5-5-5-5-5-5-5-5-5-5-5-5-5-5-5-5-5-5-5-5-5-5-5-5-5-5-5-5-5-5-5-5-5-5-5-|
E|---------------------------------------------------------------------------|

Then the "red pill blue pill" part

G|---------------------------------------------------------------------------|
D|---------------------------------------------------------------------------|
A|-5-5-5--5-5---7-7-7--7-7-----------------4-4-4--4-4------------------------|
E|---------------------------6-6-6--6-6--------------------------------------|

Then

G|---------------------------------------------------------------------------|
D|---------------------------------------------------------------------------|
A|-5-5-5--5-5--5-5-5--5-5--5-5-5--5-5--5-5-5--5-5--5-5-5--5-5--5-5-5--5-5----|
E|---------------------------------------------------------------------------|

G|---------------------------------------------------------------------------|
D|---------------------------------------------------------------------------|
A|-5-5-5--5-5--5-5-5--5-5--5-5-5--5-5--5-5-5--5-5--5-5-5--5-5--5-5-5--5-5----|
E|---------------------------------------------------------------------------|


As for the solo:

G|---------------------------------------------------------------------------|
D|---------------------------------------------------------------------------|
A|--5-5-5-5-5-5-5-5--7-7-7-7-7-7-7-7-----------------------------------------|
E|------------------------------------6-6-6-6-6-6-6-6---3-3-3-3-3-3-3-3-3----|

And that's it!


| /  slide up
| \  slide down
| h  hammer-on
| p  pull-off
| ~  vibrato
| +  harmonic
| x  Mute note
===============================================================================
comments
We did not receive enough feedback on this tab! Please rate:
print report bad tab
1 2 3 4 5
I want to post or [tab]
guest
You may want to rate the tab now too:
select rating
Please do not post tabs as comments. Select "correction" instead!