Oops, an error
Loading. Please wait.

Signs Tab

version 3
version 3

Whole song

Interactive

396 views 1 this week
no commentswrite comment
1 2 3 4 5
please rate
add to favorites
launch autoscroll
font size
0
reset
how to read this tab
guitar tuner
Tab Pro tools
  • play this tab
  • loop segment
  • change instrument
  • show fretboard
  • metronome
×
Best way to learn
"Signs"
Autoscroll
slow
fast
+/-
esc
set tempo
stop
Contributor
Difficulty
intermediate
Bloc Party "signs" live version
Tabbed by Oscar

Be carefull, this band plays a lot with pedal effects and change them very often so I 
advice to pay real attention when you cover their songs. ENJOY!


(Kele) 2nd Guitar: clean (bass and voice part) started after the first 2 times intro


E string

E-----9----7-----5-----0-------9-----7-----5/12---------




(Russel) lead guitar: lightly distorted with reverb


Intro + 1st Verse

e----------7------------------------------------------------------|
B-----7---7-----------9-7----10-9-7-------------------------------|
G---9--------(X2)---------9---------(X2)--------------------------|
D-9----9----------------------------------------------------------|
A-----------------------------------------------------------------|
E-----------------------------------------------------------------|

Verses (arpegios)

e------------------7----------------------------------------|
B-------7---------7----------9-7--------10-9-7--7-----------|
G---9----9--9--9-----(X2)--------9--9-----------------------|(X2)
D-9---9---9--9--9----------9------9--9--------9--9----------|
A-----------------------------------------------------------|
E-----------------------------------------------------------|



Solo  Lightly Distored with Reverb and little Delay

e-9--7----4-----2--------5-4--2-0-------------------------|
B--9-------5-----2-(X3)-5---------2-0-2-------------------|
G---------------------------------------------------------|
D---------------------------------------------------------|
A---------------------------------------------------------|
E---------------------------------------------------------|

e----------------------------------------------9---9---9---9------|
B-2---2---2---4---4---4---4---5---5---5---5------9---9---9---9----|
G---1---1---1---4---4---4---4---4---4---4---4---------------------|
D-----------------------------------------------------------------|
A-----------------------------------------------------------------|
E-----------------------------------------------------------------|

e-7---7------------------------------------------------|
B---7---10--9-7--------------10--9-7-------------------|
G---------------9----9----------------9------9---11----|
D------------------9---9-------------------9---9-------|
A------------------------------------------------------|
E------------------------------------------------------|

e-------------------------------------19---|
B-14----14----16----16----17----17---------|
G----13----13----16----16----16----16------|
D------------------------------------------|
A------------------------------------------|
E------------------------------------------|

e-19--17--16------16----------------17--16---17--16---------16---|
B-------------19--------17----17---------------------19--16------|
G--------------------16----16------------------------------------|
D----------------------------------------------------------------|
A----------------------------------------------------------------|
E----------------------------------------------------------------|

e-----------------------------------------|
B-17----17----17----19--16----16----16----|
G----16----16----16--------16----16-------|
D-----------------------------------------|
A-----------------------------------------|
E-----------------------------------------|
comments
We did not receive enough feedback on this tab! Please rate:
print report bad tab
1 2 3 4 5
I want to post or [tab]
guest
You may want to rate the tab now too:
select rating
Please do not post tabs as comments. Select "correction" instead!