Oops, an error
Loading. Please wait.

Skeleton Bass Tab

version 1
version 1

Whole song

Interactive

3,615 views 9 this week
1 commentread comment
1 2 3 4 5
excellent!
x 6
add to favorites
launch autoscroll
font size
0
reset
guitar tuner
Autoscroll
slow
fast
+/-
esc
set tempo
stop
Help us to improve Ultimate-Guitar.com Take our survey!
×
Contributor
Difficulty
novice
-------------------------------------------------------------------------------
			     Skeleton - Bloc Party
-------------------------------------------------------------------------------

Tabbed By : BassistBentley
e-mail: bentley.max@gmail.com

Tuning: Standard (EADG)

G|-10----9----|
D|--0----0----|
A|------------|
E|------------| x4

0:11
G|-10--10--10-10-10---9---9--9--9--9----|                                     \
D|--0---0---0--0--0---0-0--0--0--0--0---|                                     |
A|--------------------------------------|                                     |
E|--------------------------------------| x2                                  |
                                                                              | x12
G|-10--10--10-10-10----9---9---9---9-----10--10--10-10-10---9--9--9--9-----|  |
D|----------------------------------------7---7---7--7--7---8-8--8--8--8---|  |
A|--8---8---8--8--8---10-10--10--10--10------------------------------------|  |
E|-------------------------------------------------------------------------|  /

2:12
G|----------------5-7------5-7--------|
D|------------------0--------0--------|
A|-5--------5-------------------------|
E|------------------------------------|

G|---------------------------------|
D|---------------------------------|
A|-5-5-5-5-5-5-5-5-5-5-5-5-5-5-5-5-|
E|---------------------------------|

G|---------------------------------|
D|---------------------------------|
A|-3-5-5-5-5-5-5-5-5-5-5-5-5-5-5-5-|
E|---------------------------------| x3

2:34
G|-10-10-10-10-10-10-10-10--9--9--9--9--9--9--9--9--|                                            \
D|--0--0--0--0--0--0--0--0--0--0--0--0--0--0--0--0--|                                            |
A|--------------------------------------------------|                                            |
E|--------------------------------------------------| x2                                         |
                                                                                                 | x2
G|-10-10-10-10-10-10-10-10--9--9--9--9--9--9--9--9--10-10-10-10-10-10-10-10--9-9-9-9-9-9-9-9--|  |
D|---------------------------------------------------7--7--7--7--7--7--7--7-------------------|  |
A|--8--8--8--8--8--8--8--8--10-10-10-10-10-10-10-10--------------------------7-7-7-7-7-7-7-7--|  |
E|--------------------------------------------------------------------------------------------|  /

2:56
G|-10----9----10----9---|
D|--0----0-----0----0---|
A|----------------------|
E|----------------------| 

G|-10----9----10----12---|
D|-----------------------|
A|--8---10----12----13---|
E|-----------------------| 

end:
G|-(7~~~~~~~)---|
D|--0~~~~~~~----|
A|--------------|
E|--------------|

however, being a nerdy music student, I prefer this ending:
G|-14~~~~~~~----|
D|--0~~~~~~~----|
A|--------------|
E|--------------|
===============================================================================
comments
print report bad tab
1 comment total.
0 reply
Neon765 242 wrote on May 2 2016, 07:37 pm

What is this? Are you sure you were making a bass tab?

I want to post or [tab]
guest
You may want to rate the tab now too:
select rating
Please do not post tabs as comments. Select "correction" instead!