Oops, an error
Loading. Please wait.

Skeleton Tab

version 3
version 3

Whole song

Interactive

27,683 views 69 this week
7 commentsread comments
1 2 3 4 5
x 16
add to favorites
launch autoscroll
font size
0
reset
how to read this tab
guitar tuner
backing track
0:00
0:00
×
Best way to learn
"Skeleton"
Autoscroll
slow
fast
+/-
esc
set tempo
stop
Difficulty
novice
Standard tuning

(guitar 1)
(riff 1)
e|--------------------------------|
B|-10h-11h-10------10h-11h-10-----|
G|----------------------------10--|
D|--------------------------------|
A|--------------------------------|
E|--------------------------------|

(riff 2)
e|-----------------------------------|
B|-10h-11h-10------10h-11h-10--------|
G|----------------------------10---10|
D|-------------------------------12--|
A|-----------------------------------|
E|-----------------------------------|

(riff 3)
e|---------------------------------------------|
B|---10---10----10--11-10-----10----10----11-13|
G|-10---10---10------------10----10----10------|
D|---------------------------------------------|
A|---------------------------------------------|
E|---------------------------------------------|

(riff 4)
e|------------------------------------------------|
B|----10--13----10--13-----10--13----10----11-10--|
G|-10--------10---------10--------10----10--------|
D|------------------------------------------------|
A|------------------------------------------------|
E|------------------------------------------------|

(on now for the lead
there is a lot more than the rhythm)

(riff 1)
e|--------------------------|
B|--6-6-5-5-----------------|
G|----------5---5---5---5---|
D|------------7---7---7---7-|
A|--------------------------|
E|--------------------------|

(riff 2)
e|-----------------------------------------8-5-----|
B|-6-5------6-5-----6-5------6-5-----6-5-----------|
G|-----5--------5-------5--------5-------5---------|
D|-------------------------------------------------|
A|-------------------------------------------------|
E|-------------------------------------------------|

(riff 3)
e|------8-5---|
B|6-5---------|
G|----5-------|
D|------------|
A|------------|
E|------------|

(riff 4)
e|------------------------------------------|
B|-8--9----6--5--13-12--10--9---------------|
G|-9--10---7--5--14--12--11--9--------------|
D|------------------------------------------|
A|------------------------------------------|
E|------------------------------------------|

(riff 5)
e|------8--------8------8------8--------|
B|----8-------8-------8------8----------|
G|-10------10------10-----10------------|
D|--------------------------------------|
A|--------------------------------------|
E|--------------------------------------|

(riff 6)
e|------8--------8------8------8--------|
B|----8-------8-------8------8----------|
G|-9-------9-------9-------9------------|
D|--------------------------------------|
A|--------------------------------------|
E|--------------------------------------|

(riff 7)
e|-0----0-----0---8-----8-----8---|
A|--6-----6-----6---6-----6-----6-|
D|---7------7---------7-----7-----|
G|--------------------------------|
B|--------------------------------|
E|--------------------------------|

(riff 8)
e|-13--12-----|
A|-13--13--13-|
D|---------14-|
G|------------|
B|------------|

(riff 9)
e|-8---------------8---------------8--|
A|-10--8----6--8---11---8---6--8---10-|
D|-10--9----7--9---10---9---7--9---10-|
G|-----10---8--10-------10--8--10-----|
B|-----10---8--10-------10--8--10-----|
E|------------------------------------|
E|------------------------------------|


************************************

| h  Hammer-on

************************************
Suggest correction
comments
print report bad tab
7 comments total. Showing first comments.
+1 reply
bear hair 10 Apr 18, 2006 02:17 AM

i messed up the chorus it realy gose

e|-----------------------------
B|8-10-6-5-11-11-11-11-9-------
G|9-10-7-5-14-14-12-12-9-------
D|-----------------------------
A|-----------------------------
E|-----------------------------

+2 reply
Zwie 93 May 06, 2006 01:49 PM

Don't know if it is 2 much to ask but I was wondering if you could put like instead of "riffs" could you put like chorus, and Verse 1, like ALL THE OTHER TABS ARE, just makes it easier for me, and maybe sum other people

+2 reply
zaleon 10 Jun 17, 2007 05:34 PM

agreed, it's kinda confusing this way. and i think some notes are missing.

guest
You may want to rate the tab now too:
select rating
Wanna post a correction for this tab? Suggest correction