Oops, an error
Loading. Please wait.

Skeleton Tab

version 4
version 4

Whole song

Interactive

5,144 views 24 this week
1 commentread comment
1 2 3 4 5
accurate
x 3
add to favorites
launch autoscroll
font size
0
reset
how to read this tab
guitar tuner
Autoscroll
slow
fast
+/-
esc
set tempo
stop
Help us to improve Ultimate-Guitar.com Take our survey!
×
Author
Difficulty
novice
There are 2 other tabs of the same song, but both had missing parts, and messed up 
i tried to combine them both, into jus 1 better tab!?!??! I added sum things of my own also.

Standard Tuning

guitar 1 {intro}
e|--------------------------------|
B|-10h-11h-10------10h-11h-10-----|{x3}
G|----------------------------10--|
D|--------------------------------|
A|--------------------------------|
E|--------------------------------|

Guitar 2 {intro}
e|--------------------------|
B|--6-6-5-5-----------------|{x12}
G|----------5---5---5---5---|
D|------------7---7---7---7-|
A|--------------------------|
E|--------------------------|

Guitar 1 {intro prt. 2}
e|---------------------------------------|
B|-10h-11h-10------10h-11h-10------------|{x1}
G|----------------------------10---10-12-|
D|-------------------------------12------|
A|---------------------------------------|
E|---------------------------------------|

Guitar 1 {intro prt. 3}
e|---------------------------------------------|
B|---10---10----10--11-10-----10----10----11-13|{x2}
G|-10---10---10------------10----10----10------|
D|---------------------------------------------|
A|---------------------------------------------|
E|---------------------------------------------|

Guitar 1 {Intro Prt. 4}
e|------------------------------------------|
B|------10-10--10-10---10-10--11-11--10-10--|{x1}
G|10-10------10-----10----------------------|
D|------------------------------------------|
A|------------------------------------------|
E|------------------------------------------|

e|------------------------------------------|
B|------10-10--10-10---10-10--11-11--13-13--|{x1}
G|10-10------10-----10----------------------|
D|------------------------------------------|
A|------------------------------------------|
E|------------------------------------------|

e|------------------------------------------|
B|------10-10--10-10---10-10--11-11--10-10--|{x1}
G|10-10------10-----10----------------------|
D|------------------------------------------|
A|------------------------------------------|
E|------------------------------------------|

e|-----------------------------------|
B|-----------------------------------|{x1}
G|-10-10-10-10-10-10-10-10-10--------|
D|-----------------------------------|
A|-----------------------------------|
E|-----------------------------------|


Guitar 2 {Verse 1}
e|-----------------------------------|
B|---6--5-----6--5-----5-----5-------|{x3}
G|---------5--------5-----5----------|
D|-----------------------------------|
A|-----------------------------------|
E|-----------------------------------|

Guitar 2 {part 2}
e|------------------8--5-------------|
B|---6--5-----6--5-------6--5--------|{x1}
G|---------5------------------5------|
D|-----------------------------------|
A|-----------------------------------|
E|-----------------------------------|

e|-------8-8-------8-8-6-5-------8-8------8-8-6-5-|
B|----6------6--6----------6---------6--6---------|{no chords}
G|--5---5-----5--5--------5----5------5--5--------|
D|------------------------------------------------|
A|------------------------------------------------|
E|------------------------------------------------|(1x)

e|--------------------|
B|----6---------------|
G|--5---5-8-8-8-8-8-6-|
D|--------------------|
A|--------------------|
E|--------------------|(1x)

 Chorus {either Guitar}
e|-----------------------------|
B|8-10-6-5-11-11-11-11-9-------|{x8}
G|9-10-7-5-14-14-12-12-9-------|
D|-----------------------------|
A|-----------------------------|
E|-----------------------------|

If thas 2 fast for u, this works also

Chorus
e|-----------------------------------|
B|---------------1111--99--7--6------|{x8}
G|--10h11--8--6----------------------|
D|-----------------------------------|
A|-----------------------------------|
E|-----------------------------------|


Guitar 2 Verse 2
{prt.1}
e|------8--------8------8------8--------|
B|----8-------8-------8------8----------|{8}
G|-10------10------10-----10------------|
D|--------------------------------------|
A|--------------------------------------|
E|--------------------------------------|

Alternate {ex: prt.1 - prt.2 - prt.1 - prt.2}

{prt.2}
e|------8--------8------8------8--------|
B|----8-------8-------8------8----------|{x9}
G|-9-------9-------9-------9------------|
D|--------------------------------------|
A|--------------------------------------|
E|--------------------------------------|

Guitar 1 Verse 2
e|------------------------------------|
B|------------------8-8--8------------|{until Chorus}
G|---------10-10-10-------------------|
D|------------------------------------|{WAY!!!!! in the background, u might not beilive 
but there is a second guitar on VERse 2}
A|------------------------------------|
E|------------------------------------|

Chorus {either Guitar}
e|-----------------------------|
B|8-10-6-5-11-11-11-11-9-------|{x8}
G|9-10-7-5-14-14-12-12-9-------|
D|-----------------------------|
A|-----------------------------|
E|-----------------------------|

If thas 2 fast for u, this works also

Other Chorus
e|-----------------------------------|
B|---------------11-11--9-9--7--6----|{x8}
G|--10h11--8--6----------------------|
D|-----------------------------------|
A|-----------------------------------|
E|-----------------------------------|

Break Guitar 2
e|-0----0-----0---8-----8-----8---|
A|--6-----6-----6---6-----6-----6-|{x8}
D|---7------7---------7-----7-----|
G|--------------------------------|
B|--------------------------------|
E|--------------------------------|

Break Guitar 1
e|-----5---5--6----5---5--8----------|
B|---6---6-------6---6---------------|{x8}
G|-----------------------------------|
D|-----------------------------------|
A|-----------------------------------|
E|-----------------------------------|

Guitar 2 {Break part 2}
e|-8---------------8---------------8--|
A|-10--8----6--8---11---8---6--8---10-|{x4}
D|-10--9----7--9---10---9---7--9---10-|
G|-----10---8--10-------10--8--10-----|
B|-----10---8--10-------10--8--10-----|
E|------------------------------------|
E|------------------------------------|

Guitar 1 {Break part 2}
e|-----6---6--7----6---6--9----------|
B|---7---7-------7---7---------------|{x4}
D|-----------------------------------|
A|-----------------------------------|
E|-----------------------------------|

Outro Guitar 2
e|-13--12-----|
A|-13--13--13-|{x3}
D|---------14-|
G|------------|
B|------------|

Outro Guitar 1
e|-----6---6--6-7-6--------------------|
B|---7---7--7--------------------------|{x4}
G|-------------------------------------|
D|-------------------------------------|
A|-------------------------------------|
E|-------------------------------------|

I Tried my best, Rate it {Hate It Or Love It}
Suggest correction
What's this?
You can suggest a correction to this tab. Community and Mods will review your correction and vote to approve or reject it.
comments
We did not receive enough feedback on this tab! Please rate:
print report bad tab
1 2 3 4 5
1 comment total.
0 reply
gavindavis 153 wrote on January 26 2009, 11:00 am

i must say you've said its missing parts and you've tried to correct it... in my opinion u've made it worse......

guest
You may want to rate the tab now too:
select rating
Please do not post tabs as comments. Select "correction" instead!