Oops, an error
Loading. Please wait.

So He Begins To Lie Bass Tab

version 1
version 1

Whole song

Interactive

1,619 views 6 this week
1 commentread comment
1 2 3 4 5
please rate
add to favorites
launch autoscroll
font size
0
reset
guitar tuner
Autoscroll
slow
fast
+/-
esc
set tempo
stop
Help us to improve Ultimate-Guitar.com Take our survey!
×
Author
------------------------------------------------------------------
SO HE BEGINS TO LIE - Bloc Party
------------------------------------------------------------------

Tabbed by - M,eth
Album - Four
Bassist - Gordon Moakes




G|---------------|----5-5--------|---------------|---------------|
D|----2-2--------|--------5---5--|----2-2--------|----5-5--------|
A|--------3---3--|---------------|--------3---3--|--------3------|
E|1-1------------|5-5------------|1-1------------|5-5------------|
                                                                   x3
G|---------------|----5-5--------|---------------|---------------|
D|----2-2--------|--------5---5--|----2-2--------|---------------|
A|--------3---3--|---------------|--------3---3--|--5-4---4-3----|
E|1-1------------|5-5------------|1-1------------|5-----5-----3-3|



G|---------------|---------------|---------------|---------------|
D|---------------|---------------|---------------|---------------|
A|---------------|---------------|---------------|---------------|
E|1-1-1-1-1-----1|5-5-5-5-5-----5|0-0-0-0-0-----0|0-0-0-0-0---x-x| x4



G|---------------|----5-5--------|---------------|---------------|
D|----2-2--------|--------5---5--|----2-2--------|----5-5--------|
A|--------3---3--|---------------|--------3---3--|--------3------|
E|1-1------------|5-5------------|1-1------------|5-5------------|
                                                                 
G|---------------|----5-5--------|---------------|---------------|
D|----2-2--------|--------5---5--|----2-2--------|---------------|
A|--------3---3--|---------------|--------3---3--|--5-4---4-3----|
E|1-1------------|5-5------------|1-1------------|5-----5-----3-3|

G|---------------|------12-12--------|---------------|---------------------12|
D|----9-9-10--10-|------------14--12-|----9-9-10--10-|---10-12----12-14-12---|
A|8-8------------|12-12--------------|8-8------------|12-------12------------|
E|---------------|-------------------|---------------|-----------------------|

G|---------------|------12-12--------|---------------|---------------|
D|----9-9-10--10-|------------14--12-|----9-9-10--10-|---------------|
A|8-8------------|12-12--------------|8-8------------|--5-4---4-3----|
E|---------------|-------------------|---------------|5-----5-----3-3|



G|---------------|---------------|---------------|---------------|
D|---------------|---------------|---------------|---------------|
A|---------------|---------------|---------------|---------------|
E|1-1-1-1-1-----1|5-5-5-5-5-----5|0-0-0-0-0-----0|0-0-0-0-0---x-x| x4



G|------------|------------|------------|------------|
D|------------|------------|777777777777|777777777777|
A|888888888888|888888888888|------------|------------|
E|------------|------------|------------|------------|

G|------------|------------|------------------------|------------------------|
D|------------|------------|101010101010101010101010|------------------------|
A|888888888888|888888888888|------------------------|101010101010101010101010|
E|------------|------------|------------------------|------------------------|

G|------------|------------|------------|------------|
D|------------|------------|777777777777|777777777777|
A|888888888888|888888888888|------------|------------|
E|------------|------------|------------|------------|

G|------------|------------|------------------------|------------------------|
D|------------|------------|------------------------|------------------------|
A|888888888888|888888888888|101010101010101010101010|101010101010101010101010|
E|------------|------------|------------------------|------------------------|

G|------------|------------|------------|------------|
D|------------|------------|777777777777|777777777777|
A|888888888888|888888888888|------------|------------|
E|------------|------------|------------|------------|

G|------------|------------|------------------------|------------------------|
D|------------|------------|101010101010101010101010|------------------------|
A|888888888888|888888888888|------------------------|101010101010101010101010|
E|------------|------------|------------------------|------------------------|

G|------------|------------|------------|------------|
D|------------|------------|777777777777|777777777777|
A|888888888888|888888888888|------------|------------|
E|------------|------------|------------|------------|

G|------------|--------------------|----------------|----------------|
D|------------|--------------------|----------------|----------------|
A|888888888888|88888810--10--10--10|----------------|----------------|
E|------------|--------------------|----------------|----------------|



G|---------------|----5-5--------|---------------|---------------|
D|----2-2--------|--------5---5--|----2-2--------|----5-5--------|
A|--------3---3--|---------------|--------3---3--|--------3------|
E|1-1------------|5-5------------|1-1------------|5-5------------|
                                                                 
G|---------------|----5-5--------|---------------|---------------|
D|----2-2--------|--------5---5--|----2-2--------|---------------|
A|--------3---3--|---------------|--------3---3--|--5-4---4-3----|
E|1-1------------|5-5------------|1-1------------|5-----5-----3-3|


not 100% sure but sounds correct.
Suggest correction
Give kudos to tab author, rate the tab!
1 2 3 4 5
comments
print report bad tab
1 comment total.
0 reply
combatcohan95 41 wrote on May 28 2013, 04:52 pm

Edit:

G|---------------|----5-5--------|---------------|---------------|
D|----2-2--------|--------5---5--|----2-2--------|----5-5--------|
A|--------3---3--|---------------|--------3---3--|--------3------|
E|1-1------------|5-5------------|1-1------------|5-5------------|

guest
You may want to rate the tab now too:
select rating
Wanna post a correction for this tab? Suggest correction