Oops, an error
Loading. Please wait.

So Here We Are Bass Tab

version 1
version 1

Whole song

Interactive

1,079 views 1 this week
no commentswrite comment
1 2 3 4 5
please rate
add to favorites
launch autoscroll
font size
0
reset
guitar tuner
Tab Pro tools
  • play this tab
  • loop segment
  • change instrument
  • show fretboard
  • metronome
×
Best way to learn
"So Here We Are"
Autoscroll
slow
fast
+/-
esc
set tempo
stop
Contributor
Tabbed by: jaronthebassist
                                          So Here We Are                                            


                                                                                Bloc Party
Bass



       E   E   E   E   E   E   E   E      E   E   E   E   E   E   E   E   4x      
G||---16----------16------------------|--16----------16-------------------||
D||*------19----------19------19------|------19----------19------19------*||
A||*----------19----------19------19--|----------19----------19------19--*||
E||-----------------------------------|-----------------------------------||


    Q    Q    Q    Q       Q    Q    Q    Q       Q    Q    Q    Q       Q    Q    Q    Q     
-------------6---------|------------6---------|------------6---------|------------6---------|
*-------7---------7----|-------7---------7----|-------7---------7----|-------7---------7----|
*--0-------------------|--0-------------------|--0-------------------|--0-------------------|
-----------------------|----------------------|----------------------|----------------------|


  Q    Q    Q    Q       Q    Q    Q    Q       Q    Q    Q    Q       Q    Q    Q    Q     4x
------------6---------|------------6---------|------------6---------|------------6----------||
-------7---------7----|-------7---------7----|-------7---------7----|-------7---------7----*||
--5-------------------|--5-------------------|--5-------------------|--5-------------------*||
----------------------|----------------------|----------------------|-----------------------||


  Q    Q    Q    Q       Q    Q    Q    Q       Q    Q    Q    Q       Q    Q    Q    Q     
------------6---------|------------6---------|------------6---------|------------6---------|
-------7---------7----|-------7---------7----|-------7---------7----|-------7---------7----|
--7-------------------|--7-------------------|--7-------------------|--7-------------------|
----------------------|----------------------|----------------------|----------------------|


  Q    Q    Q    Q       Q    Q    Q    Q       Q    Q    Q    Q       Q    Q    Q    Q     
------------6---------|------------6---------|------------6---------|------------6---------|
-------7---------7----|-------7---------7----|-------7---------7----|-------7---------7----|
--5-------------------|--5-------------------|--5-------------------|--5-------------------|
----------------------|----------------------|----------------------|----------------------|


    Q    Q    Q    Q       Q    Q    Q    Q       Q    Q    Q    Q       Q    Q    Q    Q     
|-------------6---------|------------6---------|------------6---------|------------6---------|
|*-------7---------7----|-------7---------7----|-------7---------7----|-------7---------7----|
|*--0-------------------|--0-------------------|--0-------------------|--0-------------------|
|-----------------------|----------------------|----------------------|----------------------|


  Q    Q    Q    Q       Q    Q    Q    Q       Q    Q    Q    Q       Q    Q    Q    Q       
------------6---------|------------6---------|------------6---------|------------6----------||
-------7---------7----|-------7---------7----|-------7---------7----|-------7---------7----*||
--5-------------------|--5-------------------|--5-------------------|--5-------------------*||
----------------------|----------------------|----------------------|-----------------------||


   Q    Q    Q    Q       Q    Q    Q    Q       Q    Q    Q    Q       Q    Q    Q    Q     
-------------6---------|------------6---------|------------6---------|------------6---------|
*-------7---------7----|-------7---------7----|-------7---------7----|-------7---------7----|
*--7-------------------|--7-------------------|--7-------------------|--7-------------------|
-----------------------|----------------------|----------------------|----------------------|


  Q    Q    Q    Q       Q    Q    Q    Q       Q    Q    Q    Q       Q    Q    Q    Q       
------------6---------|------------6---------|------------6---------|------------6----------||
-------7---------7----|-------7---------7----|-------7---------7----|-------7---------7----*||
--5-------------------|--5-------------------|--5-------------------|--5-------------------*||
----------------------|----------------------|----------------------|-----------------------||


   Q    Q    Q    Q       Q    Q    Q    Q       Q    Q    Q    Q       Q    Q    Q    Q     
-------------6---------|------------6---------|------------6---------|------------6---------|
*-------7---------7----|-------7---------7----|-------7---------7----|-------7---------7----|
*--0-------------------|--0-------------------|--0-------------------|--0-------------------|
-----------------------|----------------------|----------------------|----------------------|


  Q    Q    Q    Q       Q    Q    Q    Q       Q    Q    Q    Q       Q    Q    Q    Q     6x
------------6---------|------------6---------|------------6---------|------------6----------||
-------7---------7----|-------7---------7----|-------7---------7----|-------7---------7----*||
--5-------------------|--5-------------------|--5-------------------|--5-------------------*||
----------------------|----------------------|----------------------|-----------------------||


   Q.      E   Q.     E     Q.      E   Q.     E     Q.      E   Q.     E     Q.      E   H         
-------------------------|------------------------|------------------------|-----------------------|
*--7------14--14------9--|--9------11--11------7--|--7------14--14------9--|--9------11--11--------|
*--0-------0---0------0--|--0-------0---0------0--|--0-------0---0------0--|--0-------0---0--------|
-------------------------|------------------------|------------------------|-----------------------|


  Q.     E  Q.     E     Q.      E   Q.     E     Q.     E  Q.     E     Q.      E   H           
---------9--9---------|------------------------|---------9--9---------|------------------------||
--7----------------9--|--9------11--11------7--|--7----------------9--|--9------11--11--------*||
--9------9--9------9--|--9-------9---9------9--|--9------9--9------9--|--9-------9---9--------*||
----------------------|------------------------|----------------------|------------------------||


  W                  
--9----------------||
--7----------------||
--0----------------||
-------------------||




Duration Legend
---------------
W - whole
H - half
Q - quarter
E - 8th
S - 16th
T - 32nd
X - 64th
. - note dotted
|-n-|  - n-tuplets


Tablature Legend
----------------
L - tied note
x - dead note
g - grace note
(n) - ghost note
> - accentuded note
NH - natural harmonic
AH - artificial harmonic
TH - tapped harmonic
SH - semi harmonic
PH - pitch harmonic
h - hammer on
p - pull off
b - bend
br - bendRelease
pb - preBend
pbr - preBendRelease
brb - bendReleaseBend
\n/ - tremolo bar dip
\n - tremolo bar dive
-/n - tremolo bar Release up
/n\ - tremolo bar inverted dip
/n - tremolo bar return
-\n - tremolo bar Release down
S - shift slide
s - legato slide
/ -  slide into from below or out of upwards
\ -  slide into from above or out of downwards
~ - vibrato
W - wide vibrato
tr - trill
TP - tremolo picking
T - tapping
S - slap
P - pop
< - fade in
^ - brush up
v - brush down
comments
We did not receive enough feedback on this tab! Please rate:
print report bad tab
1 2 3 4 5
I want to post or [tab]
guest
You may want to rate the tab now too:
select rating
Please do not post tabs as comments. Select "correction" instead!