Oops, an error
Loading. Please wait.

So Here We Are Tab

version 3
version 3

Whole song

Interactive

2,848 views 6 this week
no commentswrite comment
1 2 3 4 5
please rate
add to favorites
launch autoscroll
font size
0
reset
how to read this tab
guitar tuner
Tab Pro tools
  • play this tab
  • loop segment
  • change instrument
  • show fretboard
  • metronome
×
Best way to learn
"So Here We Are"
Autoscroll
slow
fast
+/-
esc
set tempo
stop
Contributor
Difficulty
intermediate
So Here We Are Tab
Bloc Party

Intro:
e|7---7------7---7------7---7------7---7--7----|
B|-10--10-10--10--10-10--10--10-10--10--10-10--|
G|---9---9--9---9---9--9---9---9--9---9---9--9-|    
D|---------------------------------------------|……………………………x2
A|---------------------------------------------|
E|---------------------------------------------|

e|7---7------7---7------7---7------7---7------9---9------9---9------9---9------9---9------|
B|-10--10-10--10--10-10--10--10-10--10--10-10--10--12-10--10--12-10--10--12-10--10--12-10-|
G|---9---9--9---9---9--9---9---9--9---9---9--9---9---9--9---9---9--9---9---9--9---9---9—-9|
D|----------------------------------------------------------------------------------------|
A|----------------------------------------------------------------------------------------|
E|----------------------------------------------------------------------------------------|
……………………x2
Verses 1 + 2:
e|7---7------7---7------7---7------7---7------9---9------9---9------9---9------9---9------|
B|-10--10-10--10--10-10--10--10-10--10--10-10--10--12-10--10--12-10--10--12-10--10--12-10-|
G|---9---9--9---9---9--9---9---9--9---9---9--9---9---9--9---9---9--9---9---9--9---9---9—-9|
D|----------------------------------------------------------------------------------------|
A|----------------------------------------------------------------------------------------|
E|----------------------------------------------------------------------------------------|
……………………x2
Chorus:
e|12---12------12---12------12---12------12---12-------|
B|--10---10-10---10---10-10---10---10-10---10---10-10--|
G|----9----9--9----9----9--9----9----9--9----9----9--9-|
D|-----------------------------------------------------|
A|-----------------------------------------------------|
E|-----------------------------------------------------|

e|9---9------9---9------9---9------9---9-------|
B|-10--12-10--10--12-10--10--12-10--10--12-10--|
G|---9---9--9---9---9--9---9---9--9---9---9--9-|
D|---------------------------------------------|
A|---------------------------------------------|
E|---------------------------------------------|

Bridge:
e|12---12------12---12------12---12------12---12-------|
B|--10---10-10---10---10-10---10---10-10---10---10-10--|
G|----9----9--9----9----9--9----9----9--9----9----9--9-|
D|-----------------------------------------------------|
A|-----------------------------------------------------|
E|-----------------------------------------------------|

e|9---9------9---9------9---9------9---9-------|
B|-10--12-10--10--12-10--10--12-10--10--12-10--|
G|---9---9--9---9---9--9---9---9--9---9---9--9-|
D|---------------------------------------------|
A|---------------------------------------------|
E|---------------------------------------------|

e|7---7------7---7------7---7------7---7------9---9------9---9------9---9------9---9------|
B|-10--10-10--10--10-10--10--10-10--10--10-10--10--12-10--10--12-10--10--12-10--10--12-10-|
G|---9---9--9---9---9--9---9---9--9---9---9--9---9---9--9---9---9--9---9---9--9---9---9—-9|
D|----------------------------------------------------------------------------------------|
A|----------------------------------------------------------------------------------------|
E|----------------------------------------------------------------------------------------|
……………………x4

e|12---12------12---12------12---12------12---12-------|
B|--10---10-10---10---10-10---10---10-10---10---10-10--|\
G|----9----9--9----9----9--9----9----9--9----9----9--9-| \
D|-----------------------------------------------------|  \
A|-----------------------------------------------------|   \
E|-----------------------------------------------------|    \
                                                             \……………………x4
e|9---9------9---9------9---9------9---9-------|             /
B|-10--12-10--10--12-10--10--12-10--10--12-10--|            /
G|---9---9--9---9---9--9---9---9--9---9---9--9-|           /
D|---------------------------------------------|          /
A|---------------------------------------------|         /
E|---------------------------------------------|        /

End on…
e|--17-|
B|-----|
G|-----|
D|-----|
A|-----|
E|-----|

Verse 1:
I caught a glimpse, but its been forgotten
So here we are again

Chorus:
I made a vow, to carry you home... home

Verse 2:
I really tried to do what you wanted
It all went wrong again

Chorus:
I made a vow, to carry you home

Bridge:
If you fall sick, if you pass out

I figured it out, I can see again
comments
We did not receive enough feedback on this tab! Please rate:
print report bad tab
1 2 3 4 5
I want to post or [tab]
guest
You may want to rate the tab now too:
select rating
Please do not post tabs as comments. Select "correction" instead!