Oops, an error
Loading. Please wait.

Song For Clay Disappear Here Tab

version 1
version 1

Intro

Whole song

Interactive

1,906 views 1 this week
2 commentsread comments
1 2 3 4 5
x 5
add to favorites
launch autoscroll
font size
0
reset
how to read this tab
guitar tuner
Autoscroll
slow
fast
+/-
esc
set tempo
stop
Help us to improve Ultimate-Guitar.com Take our survey!
×
Author
Gavin Davis
From The New Album Out In Febuary
A Weekend In The City
Bloc Party

this is russels funky bit about 1 minute into the song have fun.
E||------------------------|----------------------|---------------------|
B||------------------------|----------------------|---------------------|
G||------------------------|----------------------|---------------------|
D||------------------------|----------------------|---------------------|
A||------------------------|----------------------|---------------------|
E||--13s----6----6----6----|--6----8----9----6----|--1--------2----2----|


  Q Q Q Q Q Q Q Q Q Q Q Q 
||----------------------|----------------------|----------------------|
||----------------------|----------------------|----------------------|
||----------------------|----------------------|----------------------|
||----------------------|----------------------|----------------------|
||----------------------|------------6----6----|--6----6----6----6----|
||--2----2----4----4----|--4----4--------------|----------------------|


  Q Q Q Q Q Q Q Q Q Q 
||----------------------|----------------------|------------|
||----------------------|----------------------|------------|
||----------------------|----------------------|------------|
||----------------------|----------------------|------------|
||--6----6--------------|--4----4--------------|--4---------|
||------------2----2----|------------4----4----|------------|


  Q Q Q Q Q Q H Q Q Q Q 
||----------------------|---------------------|----------------------|
||----------------------|---------------------|----------------------|
||----------------------|---------------------|----------------------|
||----------------------|---------------------|----------------------|
||----------------------|---------------------|----------------------|
||--6----6----6----8----|--9----6----1--------|--2----2----2----2----|


  Q Q Q Q Q Q Q Q Q Q Q Q 
||----------------------|----------------------|----------------------|
||----------------------|----------------------|----------------------|
||----------------------|----------------------|----------------------|
||----------------------|----------------------|----------------------|
||----------------------|--6----6----6----6----|--6----6----6----6----|
||--4----4----4----4----|----------------------|----------------------|


 Q Q Q Q Q Q H 
||----------------------|---------------------|-------------------||
||----------------------|---------------------|-------------------||
||----------------------|---------------------|-------------------||
||----------------------|---------------------|-------------------||
||------------4----4----|------------4--------|-------------------||
||--2----2--------------|--4----4-------------|-------------------||

gavindavis2256@fsmail.net feel free to add me to msn or email me
Suggest correction
comments
print report bad tab
2 comments total.
0 reply
cosmicsoul07 160 Nov 30, 2006 07:03 PM

great tab man, but dont they sound like chords more than single notes?

0 reply
glugger 10 Sep 26, 2007 09:27 PM

wats with all the Q's?

guest
You may want to rate the tab now too:
select rating
Wanna post a correction for this tab? Suggest correction