Oops, an error
Loading. Please wait.

Song For Clay Disappear Here Tab

version 2
version 2

Intro

Whole song

Interactive

2,786 views 1 this week
1 commentread comment
1 2 3 4 5
please rate
add to favorites
launch autoscroll
font size
0
reset
how to read this tab
guitar tuner
Autoscroll
slow
fast
+/-
esc
set tempo
stop
Help us to improve Ultimate-Guitar.com Take our survey!
×
Author
Difficulty
intermediate
Tempo: 170
8=Eighth Note
Q=Quarter Note

     8  8  8  8  8  8  Q      8  8  8  8  8  8  8  8   8  8  8  8  8  8  8
E||-------------------------|------------------------|-----------------------|
B||-------------------------|------------------------|-----------------------|
G||-------------------------|------------------------|-----------------------|
D||-------------------------|------------------------|-1--1--1--1--1--1--1---|
A||--1--1--1--3--4--1-------|------------------------|-----------------------|
E||--------------------1----|-2--2--2--2--4--4--4--4-|---------------------1-|

E||-------------------------||
B||-------------------------||
G||-------------------------||
D||-------------------------||
A||--------4--4--------3--3-||
E||--2--2--------4--4-------||

That's the main riff of the song from "A Weekend in the City", Bloc Party's upcoming CD 
to be released in Febuary 2007.
Suggest correction
Give kudos to tab author, rate the tab!
1 2 3 4 5
comments
print report bad tab
1 comment total.
0 reply
glugger 10 wrote on September 26 2007, 09:29 pm

how did u here if it wasnt out yet?

guest
You may want to rate the tab now too:
select rating
Please do not post tabs as comments. Select "correction" instead!