Oops, an error
Loading. Please wait.

Song For Clay Disappear Here Bass Tab

version 2
version 2

Whole song

Interactive

5,151 views 3 this week
no commentswrite comment
1 2 3 4 5
x 7
add to favorites
launch autoscroll
font size
0
reset
guitar tuner
Autoscroll
slow
fast
+/-
esc
set tempo
stop
Help us to improve Ultimate-Guitar.com Take our survey!
×
Author
Song For Clay (Disappear Here)
Bloc Party


Vocal Intro

Short Guitar Intro

Bass Intro
G|----------------------------------------|
D|----------------------------------------| x4
A|-------------------66666666----44----33-|
E|-66689\1-2222-4444----------22----44----|

Verse
G|---------------------------------------------------------------------|
D|---------------------------------------------------------------------| x4
A|-1111111111111111-4444444444444444------------------1111111111111111-|
E|-----------------------------------1111111111111111------------------|

Chorus
G|-----------------------------------------|
D|-----------------------------------------| x4
A|-1111-4444------6666------6666-----------|
E|-----------2222------2222------2222-4444-|

Bridge 1
G|----------------------------------------|
D|----------------------------------------| x2
A|-------------------66666666----44----33-|
E|-66689\1-2222-4444----------22----44----|

Verse
G|---------------------------------------------------------------------|
D|---------------------------------------------------------------------| x4
A|-1111111111111111-4444444444444444------------------1111111111111111-|
E|-----------------------------------1111111111111111------------------|

Bridge 2 
G|--------------------------------------------------------------------|
D|--------------------------------------------------------------------|
A|----------------------------11111------------------0000000000000000-|
E|--------------------------------------------------------------------|

Chorus
G|-----------------------------------------|
D|-----------------------------------------| x4
A|-1111-4444------6666------6666-----------|
E|-----------2222------2222------2222-4444-|

Outro
G|----------------------------------------|
D|----------------------------------------| x4
A|-------------------66666666----44----33-|
E|-66689\1-2222-4444----------22----44----|
Suggest correction
comments
print report bad tab
guest
You may want to rate the tab now too:
select rating
Wanna post a correction for this tab? Suggest correction